Oops, an error
Loading. Please wait.

Selva Negra Bass

version 1
version 1

Whole song

Interactive

by Maná
130 views 1 this week
no commentswrite comment
1 2 3 4 5
3 more votes to show rating
add to favorites
×
Save as Personal and add changes to this tab that will be seen only by you. Learn more ›
×
You can save this tab as Personal to edit and correct it or add notes. All changes will be seen only by you. Learn more »
save as personal
new!
launch autoscroll
font size
0
reset
guitar tuner
Autoscroll
slow
fast
+/-
esc
set tempo
stop
Intro:
|----------------|------------------|
|----------2-2-2-|---------2-2h4-2--|
|-2-5-0-2--------|-2-5-0-2----------|
|----------------|------------------|

|----------------|------------------|
|----------2-2-2-|------------------|
|-2-5-0-2--------|-2-5-0-2----------|
|----------------|----------3---5---|

Verso:
|----------------|------------------|
|----------2-2-2-|---------2-2h4-2--|
|-2-5-0-2--------|-2-5-0-2----------|
|----------------|------------------|

|----------------|------------------|
|----------2-2-2-|-----------2-2-2--|
|-2-5-0-2--------|-2-5-0-2----------|
|----------------|------------------|

|----------------|------------------|
|----------2-2-2-|-----------2-2-2--|
|-0-4---0--------|-0---4-0----------|
|----------------|------------------|

|----------------|------------------|
|----------2-2-2-|------------------|
|-2-5-0-2--------|-2-5-0-2----------|
|----------------|----------3---5---|

Esto se repite pero vibrando.
|----------------|------------------|
|----------2-2-2-|---------2-2h4-2--|
|-2-5-0-2--------|-2-5-0-2----------|
|----------------|------------------|

|----------------|------------------|
|----------2-2-2-|-----------2-2-2--|
|-2-5-0-2--------|-2-5-0-2----------|
|----------------|------------------|

|----------------|------------------|
|----------------|---------------2--|
|-0-4---0--4-4-4-|-0---4-0---4------|
|----------------|------------------|

|----------------|------------------|
|----------2-2-2-|------------------|
|-2-5-0-2--------|-2-5-0-2----------|
|----------------|----------3---5---|


Pre-coro

|----------------|------------------|
|--------------2-|---------------2--|
|-0-4-4-0--4-----|-0-4-4-0---4------|
|----------------|------------------|

|----------------|------------------|
|----------2-2-2-|------------------|
|-2-5-0-2--------|-2-5-0-2----------|
|----------------|--------------3---|

|----------------|------------------|
|--------------2-|------------------|
|-0-4-4-0--4-----|-0-4-4-0----4-4---|
|----------------|------------------|

|----------------|------------------|
|----------------|------------------|
|----------------|-------------7\\--|
|-3-3-3---3-3-3--|2-2-2-------------|


Coro
|----------------|------------------|
|----------0-0-2-|------------------|
|-2-5-0-2--------|-0-4-4-0-----2----|
|----------------|---------3-3------|

|----------------|------------------|
|----------------|------------------|
|-2-5-0-2----2-4-|-5-------------4--|
|----------------|---------5--------|

|----------------|------------------|
|----------0-0-2-|------------------|
|-2-5-0-2--------|-0-4-4-0-----2----|
|----------------|---------3-3------|

|----------------|------------------|
|----------------|------------------|
|-2-5-0-2----2-4-|-5----------------|
|----------------|---------5--------|

Despues del coro
intro
verso
|----------------|------------------|
|----------2-2-2-|---------2-2h4-2--|
|-2-5-0-2--------|-2-5-0-2----------|
|----------------|------------------|

|----------------|------------------|
|----------2-2-2-|-----------2-2-2--|
|-2-5-0-2--------|-2-5-0-2----------|
|----------------|------------------|

|----------------|------------------|
|----------2-2-2-|---------------2--|
|-0-4---0--------|-0---4-0-----4----|
|----------------|------------------|

|----------------|------------------|
|----------2-2-2-|------------------|
|-2-5-0-2--------|-2-5-0-2----------|
|----------------|----------3---5---|

La segunda parte no lleva bajo
|----------------|------------------|
|-----------------------------------|
|----------------|------------------|
|----------------|------------------|

|----------------|------------------|
|----------------|------------------|
|----------------|------------------|
|----------------|------------------|

luego
|----------------|------------------|
|----------------|---------------2--|
|-0-4---0--4-4-4-|-0---4-0---4------|
|----------------|------------------|

|----------------|------------------|
|----------2-2-2-|------------------|
|-2-5-0-2--------|-2-5-0-2----------|
|----------------|----------3---5---|

Pre-coro
Coro


pre-intro:
||----------------|------------------|
||º---------------|------------------|
||º2--------2-2-2-|-2--------2---2-2-|
||----------------|------------------|

|----------------|------------------||
|----------------|-----------------º||
|(2)-------------|-0---------------º||
|----------------|---------3--------||

|----------------|------------------|
|----------------|-------0-0-0-2----|
|-2---2-2------2-|-2----------------|
|----------------|------------------|

|----------------|------------------|
|----------------|------------------|
|-2---2-2------2-|-2----------------|
|----------------|------------------|

 solo

|----------------|------------------|
|----------------|-------0-0-0-2----|
|-2---2-2------2-|-2----------------|
|----------------|------------------|

|----------------|------------------|
|----------------|------------------|
|-2---2-2------2-|-2-------2-2---5--|
|----------------|----3-3-----------|

pre coro
Coro dos veces

El final
|----------------|------------------|
|----------------|-------0-0-0-2----|
|-2---2-2------2-|-2----------------|
|----------------|------------------|

|----------------|------------------|
|----------------|------------------|
|-2---2-2------2-|-2----------------|
|----------------|------------------|

Saludos raza ^--^
Suggest correction
Give kudos to tab author, rate the tab!
1 2 3 4 5
comments
print report bad tab
guest
Wanna post a correction for this tab? Suggest correction