Oops, an error
Loading. Please wait.

Si No Te Hubieras Ido Tab

version 4
version 4

Whole song

Interactive

103 views 1 this week
no commentswrite comment
1 2 3 4 5
3 more votes to show rating
add to favorites
launch autoscroll
font size
0
reset
how to read this tab
guitar tuner
×
Best way to learn
"Si No Te Hubieras Ido"
Autoscroll
slow
fast
+/-
esc
set tempo
stop
 HOLA AMIOS NO OLVIDEN ESCUCHAR LA CANCION BIEN PARA
K PUEDAN DARLES LOS RIFF CORRECTOS

introduccion: Bm Bm D G G x2

E|------2-3-3-2-2-0-5--| E|------2-3-3-2-2-0-----|
B|--2/3--3-3---3---3---| B|--2/3--3-3---3---3-2--| x2
G|---------------------| G|----------------------|

 Riff 1                   Riff 2
E|----0---2-0----------| E|----0--2--3-2-0-------|
B|---3-3-3---2---------| B|---3-3--3-------------|
G|--2---2-----2--------| G|--2---2--2------------|
D|-0-----------0-------| D|-0--------------------|
 Riff 3                   Riff 4
E|---2-0---------------| E|----3-2-0-------------|
B|--3---2--------------| B|---3-----3-2----------|
G|-2--2--2-------------| G|--2-------------------|
D|--------0------------| D|-0--------------------|
 Riff 5                   Riff 6  D
E|---2-0---------------| E|-2-2-2-X3-------------|
B|--3---2--------------| B|-3-3-3------3-2-------|
G|-2-----2-------------| G|-2-2-2---2/4----------|
D|--------0------------| D|-0-0-0---------0------|
 Riff 7                   Riff 8
E|-2-2-2-X3-3-3-2-2-0-0| E|---2-0------2---0---3---5-|
B|-3-3-3---------------| B|--3---2--2/3-2/3-2/3-2/3--|
G|-2-2-3---------------| G|-2--2--2------------------|
D|-0-0-0---------------| D|--------0-----------------|
                                      Riff 1
Bm                  G          A        D    F#7
 Te extraño más que nunca y no sé qué hacer
                               Riff 2
Bm                 G         A   D
 despierto y te recuerdo al amanecer
                                Riff 3
     A                            D
me espera otro día por vivir  sin ti
F#7            Bm
 el espejo no miente
             Riff 4
               G
me veo tan diferente
A               D     Riff 5
 me haces falta tú...
                                       Riff 6
F#7 - Bm               G            A    D    F#7
       La gente pasa y pasa siempre tan igual
                            Riff 7
Bm             G         A    D
el ritmo de la vida me parece mal
                                 Riff 8
A                                  D   F#7
 era tan diferente cuando estabas tú
G               A                    D-D G-G Bm-Bm
 sí que era diferente cuando estabas tú.

D-D G-G Bm-Bm A-A                     Riff 2
A                                      D  Dsus4
 No hay nada mas difícil que vivir sin ti
                                  Riff 2
A                                   D    Dsus4
 sufriendo en la espera de verte llegar
                                 Riff 8
A                                  D
 el frío de mi cuerpo pregunta por ti
  F#7           Bm
y no sé dónde estás...
Bm-A-G                  A               D
      si no te hubieras ido sería tan feliz


*intro x1
                                  Riff 1
Bm               G            A     D      F#7
 La gente pasa y pasa siempre tan igual
                            Riff 2
Bm             G         A    D
el ritmo de la vida me parece mal riff 8
A                                  D   F#7   Bm
 era tan diferente cuando estabas tú
G                A                   D-D G-G Bm-Bm
 sí que era diferente cuando estabas tú.
D-D G-G Bm-Bm A-A
LOS RIFF DEL CORO ES IGUAL

 No hay nada mas difícil que vivir sin ti, nooo
 sufriendo en la espera de verte llegar,
 el frío de mi cuerpo pregunta por ti
y no sé dónde estás...
Bm-A-G                                   D-D G-G Bm-Bm
     si no te hubieras ido sería tan feliz
D-D G-G Bm-Bm A-A

                                     Riff 2
 No hay nada mas difícil que vivir sin ti, nooo
                                   Riff 8
 sufriendo en la espera de verte llegar
  F#7           Bm
y no sé dónde estás...
Bm-A-G                  A               Bm
     si no te hubieras ido sería tan feliz
E|--------------------------------|
B|--------------------------------|
G|--------------------------------|
D|--4-5-4-4-5-4-4-5-4-7-5-7/5-----|
A|-2-----2-----2-------------2----|
Bm-A-G                  A           INTRO FINAL
     si no te hubieras ido sería tan feliz

E|------2-3-3-2-2-0-5--| E|------2-3-3--2---------|
B|--2/3--3-3---3---3---| B|--2/3--3-3---3---------|
G|---------------------| G|-------------2---------|
                         D|-------------0---------|
                         A|-------------0---------|
                         E|-------------2---------|
VIVA¡ LABARTHE

 BUENO ESPERO Q LES GUSTEN AMIOS ESCRIBANME,
UN SALUDO PARA MIS PATAS JHONATAN Y MELVIN
Y UNO SPECIAL PARA MI AMOR SHIRLEY! ;) !K LA KIERO¡M
Suggest correction
Give kudos to tab author, rate the tab!
1 2 3 4 5
comments
print report bad tab
guest
You may want to rate the tab now too:
select rating
Wanna post a correction for this tab? Suggest correction