Oops, an error
Loading. Please wait.

Si No Te Hubieras Ido Drum Tab

version 1
version 1

Whole song

Interactive

46 views 1 this week
no commentswrite comment
1 2 3 4 5
3 more votes to show rating
add to favorites
launch autoscroll
font size
0
reset
guitar tuner
Autoscroll
slow
fast
+/-
esc
set tempo
stop
Help us to improve Ultimate-Guitar.com Take our survey!
×
"Si no te hubieras ido"
(Una cosa ignoren laz letras que salen arriba)

Si no te hubieras ido


 Si no te hubieras ido


              E   E   E   E   E   E   E   E
C||-------|--42--42--42--42--42--42--42--42--|
C||-------|----------------------------------|
C||-------|----------------------------------|
C||-------|----------------------------------|
C||-------|----------------------------------|
C||-------|----------38------36------38------|


   E   E   E   E   E   E   E   E      E   E   E   E   E   E   E   E
--42--42--42--42--42--42--42------|--42--42--42--42--42--42--42--42--|
----------------------------------|----------------------------------|
----------------------------------|----------------------------------|
------------------------------45--|----------------------------------|
----------------------------------|----------------------------------|
--36------38------36------38------|--36------38------36------38------|


   E   E   E   E   E   E   E   S  S     E   E   E   E   E   E   E   E
--42--42--42--42--42--42--42--------|--42--42--42--42--42--42--42--42--|
------------------------------------|----------------------------------|
------------------------------------|----------------------------------|
------------------------------43-43-|----------------------------------|
------------------------------------|----------------------------------|
--36------38------36------38--------|--36------38------36------38------|


   E   E   E   E   E   E   E   E      E   E   E   E   E   E   E   E
--42--42--42--42--42--42--42------|--42--42--42--42--42--42--42--42--|
----------------------------------|----------------------------------|
----------------------------------|----------------------------------|
------------------------------45--|----------------------------------|
----------------------------------|----------------------------------|
--36------38------36------38------|--36------38------36------38------|


   E   E   E   E   E   E   E   E      E   E   E   E   E   E   E   E
--42--42--42--42--42--42--42------|--57--42--42--42--42--42--42--42--|
----------------------------------|----------------------------------|
----------------------------------|----------------------------------|
------------------------------45--|----------------------------------|
----------------------------------|----------------------------------|
--36------38------36------38------|--36------38------36------38--36--|


   E   E   E   E   E   E   E   E      E   E   E   E   E   E   E   E
--42--42--42--42--42--42--42--42--|--42--42--42--42--42--42--42--42--|
----------------------------------|----------------------------------|
----------------------------------|----------------------------------|
----------------------------------|----------------------------------|
----------------------------------|----------------------------------|
--36------38------36------38------|--36------38------36------38------|


   E   E   E   E   E   E   E   E      E   E   E   E   E   E   E   E
--42--42--42--42--42--42--42--42--|--42--42--42--42--42--42--42--42--|
----------------------------------|----------------------------------|
----------------------------------|----------------------------------|
----------------------------------|----------------------------------|
----------------------------------|----------------------------------|
--36------38------36------38------|--36------38------36------38--36--|


   E   E   E   E   E   E   E   E      E   E   E   E   E   E   E   E
--42--42--42--42--42--42--42--42--|--42--42--42--42--42--42--42--42--|
----------------------------------|----------------------------------|
----------------------------------|----------------------------------|
----------------------------------|----------------------------------|
----------------------------------|----------------------------------|
--36------38------36------38------|--36------38------36------38------|


   E   E   E   E   E   E   Q        E   E   E   E   E   E   E   E
--42--42--42--42--42--42--57----|--49--42--42--42--42--42--42--42--|
--------------------------------|----------------------------------|
--------------------------------|----------------------------------|
--------------------------------|----------------------------------|
--------------------------------|----------------------------------|
--36------38------36------38----|--36------38------36------38--36--|


   E   E   E   E   E   E   E   E      E   E   E   E   E   E   E   E
--42--42--42--42--42--42--42--42--|--42--42--42--42--42--42--42--42--|
----------------------------------|----------------------------------|
----------------------------------|----------------------------------|
----------------------------------|----------------------------------|
----------------------------------|----------------------------------|
--36------38------36------38------|--36------38------36------38------|


   E   E   E   E   E   E   E   E      E   E   E   E   E   E   E   E
--42--42--42--42--42--42--42--42--|--42--42--42--42--42--42--42--42--|
----------------------------------|----------------------------------|
----------------------------------|----------------------------------|
----------------------------------|----------------------------------|
----------------------------------|----------------------------------|
--36------38------36------38------|--36------38------36------38--36--|


   E   E   E   E   E   E   E    E       E   E   E   E   E   E   E   E
--42--42--42--42--42--42--42--(49)--|--55--42--42--42--42--42--42--42--|
------------------------------------|----------------------------------|
------------------------------------|----------------------------------|
------------------------------------|----------------------------------|
------------------------------------|----------------------------------|
--36------38------36------38--------|--36------38------36------38------|


   E   E   E   E   E   E   Q        E   E   E   E   E   E   E   E
--42--42--42--42--42--46--46----|--57--42--42--42--42--42--42--42--|
--------------------------------|----------------------------------|
--------------------------------|----------------------------------|
--------------------------------|----------------------------------|
--------------------------------|----------------------------------|
--36------38------36--38--38----|--36------38------36------38--36--|


   E   E   E   E   E   E   E   E      E   E   E   E   E   E   E   E
--42--42--42--42--42--42--42--42--|--42--42--42--42--42--42--42--42--|
----------------------------------|----------------------------------|
----------------------------------|----------------------------------|
----------------------------------|----------------------------------|
----------------------------------|----------------------------------|
--36------38------36------38------|--36------38------36------38------|


   E   E   E   E   E   E   E   E      E   E   E   E   E   E   E   E
--42--42--42--42--42--42--42------|--42--42--42--42--42--42--42--42--|
----------------------------------|----------------------------------|
------------------------------45--|----------------------------------|
----------------------------------|----------------------------------|
----------------------------------|----------------------------------|
--36------38------36------38------|--36------38------36------38--36--|


   E   E   E   E   E   E   E   E      E   E   E   E   E   E   E   E
--42--42--42--42--42--42--42--42--|--42--42--42--42--42--42--42--42--|
----------------------------------|----------------------------------|
----------------------------------|----------------------------------|
----------------------------------|----------------------------------|
----------------------------------|----------------------------------|
--36------38------36------38------|--36------38------36------38------|


   E   E   E   E   E   E   E   E      E   E   E   E   E   E   E   E
--42--42--42--42--42--42--42------|--57--42--42--42--42--42--42--42--|
----------------------------------|----------------------------------|
------------------------------45--|----------------------------------|
------------------45--------------|----------------------------------|
----------------------------------|----------------------------------|
--36------38------36------38------|--36------38------36------38--36--|


   E   E   E   E   E   E   E   E      E   E   E   E   E   E   E   E
--42--42--42--42--42--42--42--42--|--42--42--42--42--42--42--42--42--|
----------------------------------|----------------------------------|
----------------------------------|----------------------------------|
----------------------------------|----------------------------------|
----------------------------------|----------------------------------|
--36------38------36------38------|--36------38------36------38------|


   E   E   E   E   E   E   E    E       E   E   E   E   E   E   E   E
--42--42--42--42--42--42--42--(49)--|--55--42--42--42--42--42--42--42--|
------------------------------------|----------------------------------|
------------------------------------|----------------------------------|
------------------------------------|----------------------------------|
------------------------------------|----------------------------------|
--36------38------36------38--------|--36------38------36------38--36--|


   E   E   E   E   E   E   E   E      E   E   E   E   E   E   Q
--42--42--42--42--42--42--42--42--|--42--42--42--42--42--42--46----|
----------------------------------|--------------------------------|
----------------------------------|--------------------------------|
----------------------------------|--------------------------38----|
----------------------------------|--------------------------------|
--36------38------36------38------|--36------38------36------38----|


  E   E   E   E   E   E   E   E      E   E   E   E   E   E   E   E
---------------------------------|--57--42--42--42--42--42--42--42--|
---------------------------------|----------------------------------|
---------------------------------|----------------------------------|
-----43--43--43--43--------------|----------------------------------|
-----38--38--38--38--45------45--|----------------------------------|
-----36--36--36--36------38------|--36------38------36------38--36--|


   E   E   E   E   E   E   E   E      E   E   E   E   E   E   E   E
--42--42--42--42--42--42--42--42--|--49--42--42--42--42--42--42--42--|
----------------------------------|----------------------------------|
----------------------------------|----------------------------------|
----------------------------------|----------------------------------|
----------------------------------|----------------------------------|
--36------38------36------38------|--36------38------36------38------|


   E   E   E   E   E   E   Q        E   E   E   E   E   E   E   E
--42--42--42--42--42--42--57----|--49--42--42--42--42--42--42--42--|
--------------------------------|----------------------------------|
--------------------------------|----------------------------------|
--------------------------------|----------------------------------|
--------------------------------|----------------------------------|
--36------38------36------38----|--36------38------36------38--36--|


   E   E   E   E   E   E   E   E      E   E   E   E   E   E   E   E
--42--42--42--42--42--42--42--42--|--42--42--42--42--42--42--42--42--|
----------------------------------|----------------------------------|
----------------------------------|----------------------------------|
----------------------------------|----------------------------------|
----------------------------------|----------------------------------|
--36------38------36------38------|--36------38------36------38------|


   E   E   E   E   S  S  E   E   S  S     E   E   E   E   E   E   E   E
--42--42--42--42----------------------|--57--42--42--42--42--42--42--42--|
--------------------------------------|----------------------------------|
--------------------------------------|----------------------------------|
--------------------------------------|----------------------------------|
--------------------------------------|----------------------------------|
--36------38------38-38-38--38--38-38-|--36------38------36------38--36--|


   E   E   E   E   E   E   E   E      E   E   E   E   E   E   E   E
--42--42--42--42--42--42--42--49--|--57--42--42--42--42--42--42--42--|
----------------------------------|----------------------------------|
----------------------------------|----------------------------------|
----------------------------------|----------------------------------|
----------------------------------|----------------------------------|
--36------38------36------38--36--|--36------38------36------38------|


   E   E   E   E   Q     Q        E   E   E   E   E   E   E   E
--42--42--42--42--57----49----|--57--42--42--42--42--42--42--42--|
------------------------------|----------------------------------|
------------------------------|----------------------------------|
------------------------------|----------------------------------|
------------------------------|----------------------------------|
--36------38------36----36----|--36------38------36------38--36--|


   E   E   E   E   E   E   E   S  S     E   E   E   E   E   E   E   E
--42--42--42--42--42--42--42--------|--42--42--42--42--42--42--42--42--|
------------------------------------|----------------------------------|
------------------------------------|----------------------------------|
------------------------------------|----------------------------------|
------------------------------------|----------------------------------|
--36------38------36------38--38-38-|--36------38------36------38------|


   E   E   E   E   E   E   Q        E   E   E   E   E   E   E   E
--42--42--42--42--46--42--46----|--57--42--42--42--42--42--42------|
--------------------------------|----------------------------------|
--------------------------------|------------------------------45--|
--------------------------------|----------------------------------|
--------------------------------|----------------------------------|
--36------38------38------38----|--36------38------36------38------|


   E   E   E   E   E   E   E   S  S     E   E   E   E   E   E   E   E
--42--42--42--42--42--42--42--------|--42--42--42--42--42--42--42------|
------------------------------------|----------------------------------|
------------------------------43-43-|------------------------------45--|
------------------------------------|----------------------------------|
------------------------------------|----------------------------------|
--36------38------36------38--------|--36------38------36------38------|


   E   E   E   E   E   E   Q        E   E   E   E   E   E   E   E
--42--42--42--42--42--46--46----|--57--42--42--42--42--42--42--42--|
--------------------------------|----------------------------------|
--------------------------------|----------------------------------|
--------------------------------|----------------------------------|
--------------------------------|----------------------------------|
--36------38------36--38--38----|--36------38------36------38--36--|


   E   E   E   E   E   E   E   E      E   E   E   E   E   E   E   E
--42--42--42--42--42--42--42--42--|--42--42--42--42--42--42--42--42--|
----------------------------------|----------------------------------|
----------------------------------|----------------------------------|
----------------------------------|----------------------------------|
----------------------------------|----------------------------------|
--36------38------36------38------|--36------38------36------38------|


   E   E   E   E   E   E   E   E      E    E    E   E   E   E   E   E
--42--42--42--42--42--42--42------|--57--(46)--55--42--42--42--42--42--|
----------------------------------|------------------------------------|
------------------------------45--|------------------------------------|
----------------------------------|------------------------------------|
----------------------------------|------------------------------------|
--36------38------36------38------|--36--------38------36------38--36--|


   E   E   E   E   E   E   E   E      E   E   E   E   E   E   E   E
--42--42--42--42--42--42--42--42--|--42--42--42--42--42--42--42--42--|
----------------------------------|----------------------------------|
----------------------------------|----------------------------------|
----------------------------------|----------------------------------|
----------------------------------|----------------------------------|
--36------38------36------38------|--36------38------36------38------|


   E   E   E   E   E   E   E   S  S     E   E   E   E   E   E   E   E
--42--42--42--42--42--42--46--------|--57--42--42--42--42--42--42--42--|
------------------------------------|----------------------------------|
------------------------------------|----------------------------------|
------------------------------------|----------------------------------|
------------------------------------|----------------------------------|
--36------38------36------38--38-38-|--36------38------36------38--36--|


   E   E   E   E   E   E   E   E      E   E   E   E   E   E   E   E
--42--42--42--42--42--42--42--42--|--42--42--42--42--42--42--42--42--|
----------------------------------|----------------------------------|
----------------------------------|----------------------------------|
----------------------------------|----------------------------------|
----------------------------------|----------------------------------|
--36------38------36------38------|--36------38------36------38------|


   E   E   E   E   E   E   E   E      E   E   E   E   E   E   E   E
--42--42--42--42--42--42--42------|--55--42--42--42--42--42--42--42--|
----------------------------------|----------------------------------|
------------------------------45--|----------------------------------|
----------------------------------|----------------------------------|
----------------------------------|----------------------------------|
--36------38------36------38------|--36------38------36------38--36--|


   E   E   E   E   E   E   E   E      E   E   E   E   E   E   Q
--42--42--42--42--42--42--42--42--|--42--42--42--42--42--42--46----|
----------------------------------|--------------------------------|
----------------------------------|--------------------------------|
----------------------------------|--------------------------38----|
----------------------------------|--------------------------------|
--36------38------36------38------|--36------38------36------38----|


  E   E   E   E   E   E   E   E      E   E   E   E   E   E   E   E
-----------------------------49--|--57--42--42--42--42--42--42--42--|
---------------------------------|----------------------------------|
---------------------------------|----------------------------------|
-----43--43--43--43--------------|----------------------------------|
-----38--38--38--38--45----------|----------------------------------|
-----36--36--36--36------38--36--|--36------38------36------38--36--|


   E   E   E   E   E   E   E   E      E   E   E   E   E   E   E   E
--42--42--42--42--42--42--42--42--|--49--42--42--42--42--42--42--42--|
----------------------------------|----------------------------------|
----------------------------------|----------------------------------|
----------------------------------|----------------------------------|
----------------------------------|----------------------------------|
--36------38------36------38------|--36------38------36------38------|


   E   E   E   E   E   E   Q        E   E   E   E   E   E   E   E
--42--42--42--42--42--42--57----|--49--42--42--42--42--42--42--42--|
--------------------------------|----------------------------------|
--------------------------------|----------------------------------|
--------------------------------|----------------------------------|
--------------------------------|----------------------------------|
--36------38------36------38----|--36------38------36------38--36--|


   E   E   E   E   E   E   E   E      E   E   E   E   E   E   E   E
--42--42--42--42--42--42--42--42--|--42--42--42--42--42--42--42--42--|
----------------------------------|----------------------------------|
----------------------------------|----------------------------------|
----------------------------------|----------------------------------|
----------------------------------|----------------------------------|
--36------38------36------38------|--36------38------36------38------|


   E   E   E   E   S  S  E   E   S  S     E   E   E   E   E   E   E   E
--42--42--42--42----------------------|--57--42--42--42--42--42--42--42--|
--------------------------------------|----------------------------------|
--------------------------------------|----------------------------------|
--------------------------------------|----------------------------------|
--------------------------------------|----------------------------------|
--36------38------38-38-38--38--38-38-|--36------38------36------38--36--|


   E   E   E   E   E   E   E   E      E   E   E   E   E   E   E   E
--42--42--42--42--42--42--42--49--|--57--42--42--42--42--42--42--42--|
----------------------------------|----------------------------------|
----------------------------------|----------------------------------|
----------------------------------|----------------------------------|
----------------------------------|----------------------------------|
--36------38------36------38--36--|--36------38------36------38------|


   E   E   E   E   Q     Q        E   E   E   E   E   E   E   E
--42--42--42--42--57----49----|--57--42--42--42--42--42--42--42--|
------------------------------|----------------------------------|
------------------------------|----------------------------------|
------------------------------|----------------------------------|
------------------------------|----------------------------------|
--36------38------36----36----|--36------38------36------38--36--|


   E   E   E   E   E   E   Q        E   E   E   E   E   E   Q
--42--42--42--42--42--46--46----|--57--42--42--42--42--42--46----|
--------------------------------|--------------------------------|
--------------------------------|--------------------------------|
--------------------------------|--------------------------38----|
--------------------------------|--------------------------------|
--36------38------36--38--38----|--36------38------36------38----|


  E   E   E   E   E   E   E   E      E   E   E   E   E   E   E   E
-----------------------------49--|--57--42--42--42--42--42--42--42--|
---------------------------------|----------------------------------|
---------------------------------|----------------------------------|
-----43--43--43--43--------------|----------------------------------|
-----38--38--38--38--45----------|----------------------------------|
-----36--36--36--36------38--36--|--36------38------36------38--36--|


   E   E   E   E   E   E   E   E      E   E   E   E   E   E   E   E
--42--42--42--42--42--42--42--42--|--49--42--42--42--42--42--42--42--|
----------------------------------|----------------------------------|
----------------------------------|----------------------------------|
----------------------------------|----------------------------------|
----------------------------------|----------------------------------|
--36------38------36------38------|--36------38------36------38------|


   E   E   E   E   E   E   Q        E   E   E   E   E   E   E   E
--42--42--42--42--42--42--57----|--49--42--42--42--42--42--42--42--|
--------------------------------|----------------------------------|
--------------------------------|----------------------------------|
--------------------------------|----------------------------------|
--------------------------------|----------------------------------|
--36------38------36------38----|--36------38------36------38--36--|


   E   E   E   E   E   E   E   E      E   E   E   E   E   E   E   E
--42--42--42--42--42--42--42--42--|--57--42--42--42--42--42--42--42--|
----------------------------------|----------------------------------|
----------------------------------|----------------------------------|
----------------------------------|----------------------------------|
----------------------------------|----------------------------------|
--36------38------36------38------|--36------38------36------38------|


   E   E   E   E   Q     Q        E   E   E   E   E   E   E   E
--42--42--42--42--57----49----|--57--42--42--42--42--42--42--42--|
------------------------------|----------------------------------|
------------------------------|----------------------------------|
------------------------------|----------------------------------|
------------------------------|----------------------------------|
--36------38------36----36----|--36------38------36------38--36--|


   E   E   E   E   E   E   E   S  S     E   E   E   E   E   E   E   E
--42--42--42--42--42--42--42--------|--42--42--46------42--42--46------|
------------------------------------|----------------------------------|
------------------------------------|--------------45--------------45--|
------------------------------------|--------------45--------------45--|
------------------------------------|----------------------------------|
--36------38------36------38--38-38-|--36------38------36------38------|


   E   E   E   E   Q     E   S  S     E   E   E   E   E   E   E   E
--42--42--46------49----57--------|--57--42--42--42--42--42--42--42--|
----------------------------------|----------------------------------|
--------------45------------------|----------------------------------|
--------------45------------------|----------------------------------|
----------------------------------|----------------------------------|
--36------38------36----36--38-38-|--36------38------36------38--36--|


   H.               Q        E   E   E   E   E   E   E   E
--57---------------------|--57--42--42--42--42--42--42------|
-------------------------|----------------------------------|
-------------------------|----------------------------------|
-------------------------|------------------------------45--|
----------------38g38----|----------------------------------|
--36------------38g38----|--36------38------36------38------|


   E   E   E   E   E   E   E   S  S     E   E   E   E   E   E   Q
--42--42--42--42--42--42--42--------|--42--42--42--42--42--46--46----|
------------------------------------|--------------------------------|
------------------------------------|--------------------------------|
------------------------------43-43-|--------------------------------|
------------------------------------|--------------------------------|
--36------38------36------38--------|--36------38------36--38--38----|


   W
--57----------------|-------|-------||
--49----------------|-------|-------||
--------------------|-------|-------||
--------------------|-------|-------||
--------------------|-------|-------||
--36----------------|-------|-------||
Suggest correction
Give kudos to tab author, rate the tab!
1 2 3 4 5
comments
print report bad tab
guest
You may want to rate the tab now too:
select rating
Wanna post a correction for this tab? Suggest correction