Oops, an error
Loading. Please wait.

Si No Te Hubieras Ido Bass Tab

version 1
version 1

Whole song

Interactive

176 views 3 this week
no commentswrite comment
1 2 3 4 5
3 more votes to show rating
add to favorites
launch autoscroll
font size
0
reset
guitar tuner
×
Best way to learn
"Si No Te Hubieras Ido"
Autoscroll
slow
fast
+/-
esc
set tempo
stop
1er Comienzo: (Repetir 2 veces)

G |-----------------------------------------------------------------|
D |-----------------------------------------------------------------|
A |-2-2-2-2-2-2-2-2-2-2-2-2/5-5-5-5---------------------------------|
E |---------------------------------3-3-3-3-3-3-3-3-3-3-3-3-5-5-5-5-|


Transcurso:

G |-----------------------------------------------------------------|
D |-----------------------------------------------------------------|
A |-2-2-2-2-2-2-2-2---------0-0-0-0-5-5-5-5-5-5-5-5-5-5-5-5---------|
E |-----------------3-3-3-3---------------------------------2-2-2-2-|

G |-----------------------------------------------------------------|
D |-----------------------------------------------------------------|
A |-2-2-2-2-2-2-2-2---------0-0-0-0-5-5-5-5-5-5-5-5-5-5-5-5-5-5-----|
E |-----------------3-3-3-3-------------------------------------3-2-|

G |-----------------------------------------------------------------|
D |-----------------------------------------------------------------|
A |-0-0-0-0-0-0-0-0-0-0-0-0-0-0-0-0-5-5-5-5---------2-2-2-2-2-2-2-0-|
E |-----------------------------------------2-2-2-2-----------------|

G |-----------------------------------------------------------------|
D |-----------------------------------------------------------------|
A |-----------------0-0-0-0-0-0-0-0-5-5-5-5-5-5-5-5-5-5-5-5--4-5/2--|
E |-3-3-3-3-3-3-3-3-----------------------------------------2-------|

G |-----------------------------------------------------------------|
D |-----------------------------------------------------------------|
A |-2-2-2-2-2-2-2-2---------0-0-0-0-5-5-5-5-5-5-5-5-5-5-5-5---------|
E |-----------------3-3-3-3---------------------------------2-2-2-2-|

G |-----------------------------------------------------------------|
D |-----------------------------------------------------------------|
A |-2-2-2-2-2-2-2-2---------0-0-0-0-5-5-5-5-5-5-5-5-5-5-5-5-5-5-----|
E |-----------------3-3-3-3-------------------------------------3-2-|

G |-----------------------------------------------------------------|
D |-----------------------------------------------------------------|
A |-0-0-0-0-0-0-0-0-0-0-0-0-0-0-0-0-5-5-5-5---------2-2-2-2-2-2-2-0-|
E |-----------------------------------------2-2-2-2-----------------|

G |-----------------------------------------------------------------|
D |-----------------------------------------------------------------|
A |-----------------0-0-0-0-0-0-0-0-5-5-5-5-5-5-5--5-5-5-5-5--------|
E |-3-3-3-3-3-3-3-3------------------------------------------3-2----|


Estribillo:

G |-----------------------------------------------------------------|
D |-----------------------------------------------------------------|
A |-0-0-0-0-0-0-0-0-0-0-0-0-0-0-0-0-5-5-5-5-5-5-5-5-5-5-5-5-5-5-----|
E |-------------------------------------------------------------3-2-|

G |-----------------------------------------------------------------|
D |-----------------------------------------------------------------|
A |-0-0-0-0-0-0-0-0-0-0-0-0-0-0-0-0-5-5-5-5-5-5-5-5-5-5-5-5-5-5-----|
E |-------------------------------------------------------------3-2-|

G |-----------------------------------------------------------------|
D |-----------------------------------------------------------------|
A |-0-0-0-0-0-0-0-0-0-0-0-0-0-0-0-0-5-5-5-5--------2-2-2-2-2--0-----|
E |-----------------------------------------2-2-2-2-----------------|

G |-----------------------------------------------------------------|
D |-----------------------------------------------------------------|
A |-----------------0-0-0-0-0-0-0-0-5-5-5-5-5-5-5-5-5-5-5-5-5-5-5/2-|
E |-2-2-2-2-2-2-2-2-------------------------------------------------|


2do Comienzo: (Hacer 1 vez y luego empieza a repetir desde el Transcurso)

G |-----------------------------------------------------------------|
D |-----------------------------------------------------------------|
A |-2-2-2-2-2-2-2-2-2-2-2-2/5-5-5-5----------------------------5/2--|
E |---------------------------------3-3-3-3-3-3-3-3-3-3-3-3-5-5-----|


Ultimo estribillo:
Cuando hace por ultima vez el estribillo el bajo hace esto:

G |-----------------------------------------------------------------|
D |-----------------------------------------------------------------|
A |-0-0-0-0-0-0-0-0-0-0-0-0-0-0-0-0-5-5-5-5-5-5-5-5-5-5-5-5-5-5-----|
E |-------------------------------------------------------------3-2-|

G |-----------------------------------------------------------------|
D |-----------------------------------------------------------------|
A |-0-0-0-0-0-0-0-0-0-0-0-0-0-0-0-0-5-5-5-5--------2-2-2-2-2--0-----|
E |-----------------------------------------2-2-2-2-----------------|

G |-----------------------------------------------------------------|
D |-----------------------------------------------------------------|
A |-----------------0-0-0-0-0-0-0-0-2-2-2-2-2-2-2-2-2-2-2-2-2--0----|
E |-2-2-2-2-2-2-2-2-------------------------------------------------|

G |-----------------------------------------------------------------|
D |-----------------------------------------------------------------|
A |-----------------0----5-5-5-5-5-5-5-5-5-5-5-5-5-5-5--------------|
E |-2-2-2-2-2-2-2-2-------------------------------------------------|

G |-----------------------------------------------------------------|
D |-7/12-12-12-12-12-12-12/7----------------------------------------|
A |--------------------------5--------------------------------------|
E |-----------------------------------------------------------------|


Espero que les sea útil...

Un saludo a Victor (El capo de la guitarra)!!!
Suggest correction
Give kudos to tab author, rate the tab!
1 2 3 4 5
comments
print report bad tab
guest
You may want to rate the tab now too:
select rating
Wanna post a correction for this tab? Suggest correction