Oops, an error
Loading. Please wait.

Siembra El Amor Tab

version 1
version 1

Whole song

25 views 1 this week
no commentswrite comment
1 2 3 4 5
3 more votes to show rating
add to favorites
launch autoscroll
font size
0
reset
how to read this tab
guitar tuner
×
Best way to learn
"Siembra El Amor"
Autoscroll
slow
fast
+/-
esc
set tempo
stop
Esta rola tiene un sonido entre oriental y roquero combinados, el cual la 
hace escuchar muy bien. Me encargue de sacar el intro, solo y outro de la rola,
y tambien saque unos riffs, que son los que mas suenan, pero si ENCUENTRAN
ALGUN ERROR me lo dejan saber.


*INTRO:

1. ----------------------------------------------|
2. ----------------------------------------------|
3. -9---9--9-10-10-9-7--9---9--7-7-5-5-4--5-4-2--|
4. ---9-------------------9----------------------| X2
5. ----------------------------------------------|
6. ----------------------------------------------|

1. ---------|-----2-----2-----2-----2-----2-----2-----2-----2--|
2. -11b-12b-|-----4-----4-----4-----4-----4-----4-----4-----4--|
3. ---------|-4-1-4-4-2-4-4-1-4-4-2-4-4-1-4-4-2-4-4-1-4-4-2-4--|
4. ---------|-----4-----4-----4-----4-----4-----4-----4-----4--|
5. ---------|-----2-----2-----2-----2-----2-----2-----2-----2--|
6. ---------|--------------------------------------------------|

-(riff 1)

 A           E        B
Cuando das amor, recibes amor,
       A                B
es el sol de cada amanecer
           E       
que nos calentara,
                   A
sol no dejes de salir,
               E     B     
nunca nos abandones, no!!! (nunca dejes de salir).


*CORO:

 A             E          B
Si siembras dolor, recibiras dolor,
 A            E            B
si siembras amor siempre, hay hay hay hay amor.


 A                 E              B
Siempre que odies mas, mas te pudriras,
A                         B                  E
el odio es el veneno que corre por nuestras venas,
                      A
serpiente alejate de mi,
               E      B
no vayas a morderme, no!!! (porque me vas a envenenar).


A             E          B
Si siembras dolor, recibiras dolor,
 A            E            B
si siembras amor siempre, hay hay hay hay amor.

-(riff 2)

     A                 E     B
Podrias pisotear las flores del amor,
     A               B            E   
podrias escupir la tierra que te dio el nacer,
                     A                      B
podrias hacer mucho mal, pero se te regresara (es la regla de la vida)

A             E          B
Si siembras dolor, recibiras dolor,
 A            E            B
si siembras amor siempre, hay hay hay hay amor.

*SOLO:

1. ----------------------------------------------|
2. ----------------------------------------------|
3. -9---9--9-10-10-9-7--9---9--7-7-5-5-4--5-4-2--|
4. ---9-------------------9----------------------| X2
5. ----------------------------------------------|
6. ----------------------------------------------|


A                   E
Y recuerda a donde vas,
                       B
no importa quien seas tu,
                     A 
y no lo vayas a olvidar,
               E
si tu siembras el amor,
       B
reciviras amor.


*OUTRO:

1. ----------------------5-5-5-3-2-0--|
2. ---3-5-5-6---3-5-5-6---------------|
3. -4---------4-----------------------|
4. -----------------------------------| X4
5. -----------------------------------|
6. -----------------------------------|

1. --7-7-7-7-5-7-7-7-7-5-7-7-7-7-5-3-5-10--|
2. ----------------------------------------|
3. ----------------------------------------|
4. ----------------------------------------|
5. ----------------------------------------|
6. ----------------------------------------|

1. -2-4--7-7-7-7-3-5-7-7-7-7-3-5-3--|
2. ---------------------------------|
3. ---------------------------------|
4. ---------------------------------|
5. ---------------------------------|
6. ---------------------------------|

1. ----------------------5-5-5-3-2-0--|
2. ---3-5-5-6---3-5-5-6---------------|
3. -4---------4-----------------------|
4. -----------------------------------| X2
5. -----------------------------------|
6. -----------------------------------|


_____________________________________________________________________________

riff 1:           riff 2:
1. -----2-----2--|-2-------------------------|
2. -----4-----4--|-4-------------------------|
3. -4-1-4-4-2-4--|-4-------------------------|
4. -----4-----4--|-4---------2------------2--|
5. -----2-----2--|-2-2-2-2-3----2-2-2-3-2----|
6. --------------|---------------------------|


Pues eso es todo amigos, no me convence aun el outro, pero por ahi va.
Dudas o comentarios, a mi mail. Suerte!!!
Suggest correction
Give kudos to tab author, rate the tab!
1 2 3 4 5
comments
print report bad tab
guest
You may want to rate the tab now too:
select rating
Wanna post a correction for this tab? Suggest correction