Oops, an error
Loading. Please wait.

Sin Tu Cariño Tab

version 1
version 1

Whole song

127 views 1 this week
no commentswrite comment
1 2 3 4 5
3 more votes to show rating
add to favorites
launch autoscroll
font size
0
reset
how to read this tab
guitar tuner
Autoscroll
slow
fast
+/-
esc
set tempo
stop
Help us to improve Ultimate-Guitar.com Take our survey!
×
Vueno esta cancion sin duda esta poca madre
Eespero que les guste. dudas o comentario escribir a
triplehlee@

Esta cancion lleva dos guitarras, una la que lleva el
ritmo  y la seguna la de los arreglos, la guitarra de
los arreglos lleva capotraste en el sexto traste.


 INTRO

1|----------------------------------------|
2|----------------------------------------|
3|----------------------------------------|
4|----------------------------------------|
5|-----------9-8--6-----------9-8--6------|
6|-7-8--9-9---------7-8--9-9----------7-8-|


B               C#
No sé como explicar
       B            C#
Lo que siento aquí adentro
B               C#
Desde que yo te vi
         B           C#
Todo cambió por completo
B           C#
Y yo sé, yo sé
          B                     C#
Que eres tú quien llena este vacío
B                      C#
Eres la vida que hay en mí
  Am       Bm      B      C#
Quiero vivirla siempre junto a ti


F#               B
No sé que voy a hacer
           C#
sin tu cariño
Am          B
no sé si viviré
          C#    Am
sin tu cariño


B               C#
He caminado tantas calles
       B        C#
tan frías, tan solas
B                    C#
y cuando solo me he sentido
           B            C#
ahí estás tú, como un espíritu
B           C#
Y lo sé, lo sé
         B                     C#
sin tu amor siento que estoy perdido
B                      C#
si hay un deseo que pedí
Am       Bm      B       C#
es pasar mi vida entera junto a tí


F#               B
No sé que voy a hacer
           C#
sin tu cariño
Am          B
no sé si viviré
          C#    Am
sin tu cariño


ESTE ES EL SOLO


|--------------------|-----------------------|
|------------7-6-7-6-|-----------9-7-7p9h7-6-|
|-----8-6----8-6-8-6-|----8-6----9-8-8-----6-|
|-8/9-----9----------|-8/9----9--------------|
|--------------------|-----------------------|
|--------------------|-----------------------|


|-------9/11--11-11--9-9--7-7--6-6------|
|-----------------------------------9-9-|
|-10-11---------------------------------|
|---------------------------------------|
|---------------------------------------|
|---------------------------------------|

|----------13/14--14-14--13-13--11-11--9-9-|
|------------------------------------------|
|-10-10-11---------------------------------|
|------------------------------------------|
|------------------------------------------|
|------------------------------------------|

|---------------------------|
|-12-11-9-------------------|
|---------11-8-6--------8---|
|-----------------9-8-9---6-|
|---------------------------|
|---------------------------|


Am       Bm               B
Cuando mi mundo está al revés
           C#            Am
tú eres mi calma eres mi fe
        Bm                  B
como la sangre que corre en mí
       C#                F#
te necesito para vivir


F#               B
No sé que voy a hacer
           C#
sin tu cariño
Am          B
no sé si viviré
          C#    Am
sin tu cariño


F#                 Am
Aaaah, qué voy a hacer
           C#
sin tu cariño
          B                         F#
no sé viviré sin su cariño, no, no, no
                 Am
aaaaah, nada es igual
           C#
sin tu cariño
            B                          F#
no sé qué hacer sin su cariño, no, no, no...
Suggest correction
Give kudos to tab author, rate the tab!
1 2 3 4 5
comments
print report bad tab
guest
You may want to rate the tab now too:
select rating
Wanna post a correction for this tab? Suggest correction