Oops, an error
Loading. Please wait.

Sin Tu Cariño Tab

version 3
version 3

Whole song

by Maná
16 views 3 this week
no commentswrite comment
1 2 3 4 5
3 more votes to show rating
add to favorites
launch autoscroll
font size
0
reset
how to read this tab
guitar tuner
×
Best way to learn
"Sin Tu Cariño"
Autoscroll
slow
fast
+/-
esc
set tempo
stop
Esta cancion esta muy buena, y Alex le pone su 'algo' que hace
que te pongas a oirlas una y otra vez y pues con Fher haciendo
segunda voz, esta rola quedo como ya lo dije, muy buena.


Intro:
       A      B              A      B
1. ---------------------|-------------------------|
2. ---------------------|-------------------------|
3. ---------------------|-------------------------|
4. ---------------------|-------------------------|
5. ----------------7-6--|----------------7-6-4----|
6. --4-5---7-7----------|--4-5----7-7-------------|


     A                    B
          No se como explicar,
                    A            B
          lo que siento aquí adentro,
     A                    B
          desde que yo te vi,
                    A            B
          todo cambio por completo.


       A               B
           Y lo se, lo se,
                     A                    B
           que eres tu quien llena este vacio,
        A                         B
           eres la vida que hay en mi,
           F#m        G#m      A          E
           quiero vivirla siempre junto a ti.

CORO:

                             A
           No se que voy a hacer,
                      B   F#m
           sin tu cariño,
          G#m          A
           no se si vivire,
                   B     F#m
           sin tu cariño.


       A                        B
           He caminado tantas calles,
                 A            B
           tan frias, tan solas,
        A                         B
           y cuando solo me he sentido,
                     A                B
           ahí estas tu, como un espiritu.


        A              B
           Y lo se, lo se,
                    A                      B
           sin tu amor siento que estoy perdido,
        A                         B
           si hay un deseo que pedir,
              F#m       G#m      A     B    E
           es pasar mi vida entera junto a ti.

         (CORO)

Solo:

|--------------------|-----------------------|
|------------5-4-5-4-|-----------7-5-5p7h5-4-|
|-----6-8----6-4-6-4-|----6-4----7-6-6-----4-|
|-6/7-----7----------|-6/7----7--------------|
|--------------------|-----------------------|
|--------------------|-----------------------|


|-------7/9--9-9--7-7--5-5--4-4---------|
|-----------------------------------7-7-|
|-8-9-----------------------------------|
|---------------------------------------|
|---------------------------------------|
|---------------------------------------|

|----------11/12--12-12--11-11--9-9--7-7---|
|------------------------------------------|
|-8-8-9------------------------------------|
|------------------------------------------|
|------------------------------------------|
|------------------------------------------|

|---------------------------|
|-10-9-7--------------------|
|----------9-6-4--------6---|
|-----------------7-6-7---4-|
|---------------------------|
|---------------------------|

(A  B  F#m  parrafo 2:  A  B  G#m)
Cuando mi mundo esta al revez,
tu eres mi calma, eres mi fe,
como la sangre que corre en mi,
te necesito para vivir.

No se que voy a hacer,
sin tu cariño (no lo se, no se),
no se si vivire,
sin tu cariño (oh no se, ehh).

Ahhh que voy a hacer,
sin tu cariño (no se vivir sin su cariño, no no),
ahhh nada es igual,
sin tu cariño (no se que hare sin su cariño, no no no).

Ahhh que voy a hacer,
sin tu cariño (no se si vivire sin su cariño),
ahhh ya nada es igual,
sin tu cariño (sin tu cariño)

Oh no no se, no no......

1. ---------------------------7-7-5-5-3-3---------|
2. -7-----7---5--7---------5--------------7-----7-|
3. ---6-6---6------6-6-9-6------------------6-6---|
4. -----------------------------------------------|
5. -----------------------------------------------|
6. -----------------------------------------------|


  <-----------------VARIAS VECES--------------------->
1. -14-9-9-11-14-9-9-9-11-14-9-9-11-14-9-9-9-9-11-14--|---------|
2. ---------------------------------------------------|---------|
3. ---------------------------------------------------|---FADE--|
4. ---------------------------------------------------|---OUT---|
5. ---------------------------------------------------|---------|
6. ---------------------------------------------------|---------|


   PUES ESTA ES MI VERSION, ESPERO Y LA DISFRUTEN
   ES UNA ROLA MUY CHIDA, LA CUAL SE LA DEDICO
   A LA NIÑA MAS IMPORTANTE DE MI VIDA: ANELIZ TA AMO!!
   SUERTE!!!!
Suggest correction
Give kudos to tab author, rate the tab!
1 2 3 4 5
comments
print report bad tab
guest
You may want to rate the tab now too:
select rating
Wanna post a correction for this tab? Suggest correction