Oops, an error
Loading. Please wait.

Sin Tu Cariño Tab

version 5
version 5

Whole song

by Maná
38 views 1 this week
no commentswrite comment
1 2 3 4 5
3 more votes to show rating
add to favorites
×
Save as Personal and add changes to this tab that will be seen only by you. Learn more ›
×
You can save this tab as Personal to edit and correct it or add notes. All changes will be seen only by you. Learn more »
save as personal
new!
launch autoscroll
font size
0
reset
how to read this tab
guitar tuner
Autoscroll
slow
fast
+/-
esc
set tempo
stop
-Intro:

(Riff 1)
|-----------------------------------|
|-----------------------------------|
|-----------------------------------|
|-----------4-3-----------4-3-1-----|
|-1-2--4-4------1-2--4-4--------1-2-|
|-----------------------------------|

-Versos:

B     (Riff 1)   C#
No sé como explicar
       B            C#
Lo que siento aquí adentro
B   (Riff 1)    C#
Desde que yo te vi
         B           C#
Todo cambió por completo
B   (Riff 1) C#
Y yo sé, yo sé
         B                     C#
Que eres tú quien llena este vacío
B    (Riff 1)           C#
Eres la vida que hay en mí
Abm      Bbm     B      C#
Quiero vivirla siempre junto a ti

-Coro: aquí acompaña una guitarra haciendo el Riff 1-

  F#              B               C#
|------------------------------------------|
|------------------------------------------|
|------------------------------------------|
|-4-4-4-4-4-4-4-4-9-9-9-9-9-9-9-9-11-11-11-|
|-4-4-4-4-4-4-4-4-9-9-9-9-9-9-9-9-11-11-11-|
|-2-2-2-2-2-2-2-2-7-7-7-7-7-7-7-7-9--9--9--|

       B          Abm             B
|-------------------------------------------------|
|-------------------------------------------------|
|-------------------------------------------------|
|-----------------6-6-6-6-6-6-6-6-9-9-9-9-9-9-9-9-|
|-8\------6-6-----6-6-6-6-6-6-6-6-9-9-9-9-9-9-9-9-|
|----7-7------7-6-4-4-4-4-4-4-4-4-7-7-7-7-7-7-7-7-|

  C#           Abm
|------------------|
|------------------|
|------------------|
|-11-11-11-----6-6-|
|-11-11-11-8\--6-6-|
|-9--9--9------4-4-|

- esto lo hace otra guuitarra:

  F#          B          C#      B        
|-6-6--7-7-6--6-6--7-7-6----------------------|
|-7-7--7-7-7--7-7--7-7-7--9-9----------9-9-7\-|
|-----------------------------7\--------------|
|--------------------------------9-9-9--------|
|---------------------------------------------|
|---------------------------------------------|

Abm           Bbm        C#      Abm
|-6-6--7-7-6--6-6--7-7-6------------|
|-7-7--7-7-7--7-7--7-7-7--9-9-8--9\-|
|-----------------------------------|
|-----------------------------------|
|-----------------------------------|
|-----------------------------------|

F#               B
No sé que voy a hacer
           C#
sin tu cariño
Abm          B
no sé si viviré
          C#    Abm
sin tu cariño

-Versos 2ª parte:

He caminado tantas calles
tan frías, tan solas
y cuando solo me he sentido
ahí estás tú, como un espíritu
Y lo sé, lo sé
sin tu amor siento que estoy perdido
si hay un deseo que pedí
es pasar mi vida entera junto a tí

-Coro-

-Solo: aquí también se acompaña con el Riff 1-

 B               C#   B              C#
|--------------------|-----------------------|
|------------7-6-7-6-|-----------9-7-7p9h7-6-|
|-----8-6------------|----8-6----------------|
|-8/9-----9--8-6-8-6-|-8/9----9--9-8-8-----6-|
|--------------------|-----------------------|
|--------------------|-----------------------|

         B                    C#
|-------9/11--11-11p9-9h7-7h6-6-----|
|-------------------------------9-9-|
|-10-11-----------------------------|
|-----------------------------------|
|-----------------------------------|
|-----------------------------------|
             B                        C#
|----------13/14--14-14p13-13p11-11-9-9-|
|---------------------------------------|
|-10-10-11------------------------------|
|---------------------------------------|
|---------------------------------------|
|---------------------------------------|
                          Abm
|---------------------------|
|-12p11-9-------------------|
|---------11--8-6-------8---|
|-----------------9-8-9---6-|
|---------------------------|
|---------------------------|

-Intermedio:

Abm       Bbm              B
Cuando mi mundo está al revés
           C#            Abm
tú eres mi calma eres mi fe
        Bbm                 B
como la sangre que corre en mí
       C#                F#
te necesito para vivir

-Coro-

-luego viene esto que llevará al final-

F#                 Abm
Aaaah, qué voy a hacer
           C#
sin tu cariño
          B                         F#
no sé viviré sin su cariño, no, no, no
                 Abm
aaaaah, nada es igual
           C# 
sin tu cariño
            B                          F#
no sé qué hacer sin su cariño, no, no, no...

-Final: F# - Bbm - C# - B

  F#        Abm        C#         B
|-------6-7-9-7-6--6-7-9-7-6--6-7-6-------7-9-9/-|
|-7-9-7-7-7-7-7-7--7-7-7-7-7--7-7-7-9-9-7--------|
|-6-6-6------------------------------------------|
|------------------------------------------------|
|------------------------------------------------|
|------------------------------------------------|

-para tocar lo que sigue es preferible dejar el dedo en 
 el traste 14 como cejillo-

  F#                                        Abm
|-/16-14----14--16-14----14--14-18-14----14-16-14----14-|
|--------14-----------14--------------14----------14----|
|-------------------------------------------------------|
|-------------------------------------------------------|
|-------------------------------------------------------|
|-------------------------------------------------------|

                              C#
|-16-14----14--14-18-14----14-16-14----14--16-14----14-|
|-------14--------------14----------14-----------14----|
|------------------------------------------------------|
|------------------------------------------------------|
|------------------------------------------------------|
|------------------------------------------------------|
   
              B (*)
|-14-18-14----14-14-14-14-13-13-11-11-13-13-14-14-|
|----------14-------------------------------------|
|-------------------------------------------------|
|-------------------------------------------------|
|-------------------------------------------------|
|-------------------------------------------------|


-en la parte en que aparcece este signo (*) puedes variar
 tocando esto:

|-14-14-14-13-13-11-11----------|
|----------------------14-14-12-|
|-------------------------------|
|-------------------------------|
|-------------------------------|
|-------------------------------|

-y así termina este gran tema.
Suggest correction
Give kudos to tab author, rate the tab!
1 2 3 4 5
comments
print report bad tab
guest
Wanna post a correction for this tab? Suggest correction