Oops, an error
Loading. Please wait.

Soledad Tab

19 views 1 this week
no commentswrite comment
1 2 3 4 5
3 more votes to show rating
add to favorites
launch autoscroll
font size
0
reset
how to read this tab
guitar tuner
Autoscroll
slow
fast
+/-
esc
set tempo
stop
Help us to improve Ultimate-Guitar.com Take our survey!
×
HOLA!!!!!!AMIGOS COMO ESTAS ESTOY DE BUELTA CON MUCHA MAS
MUSICA DE MANÁ Y CON UN TEMA QUE ME GUSTA MUCHO ESCUCHARLO Y
TOCARLO CON LA GUITARRA Y PENSE QUE NO PODIA FALTAR EN ESTA
PAGINA UN TAB TAN BUENO COMO EL QUE LES VOY A DEJAR OK
BUENO AHÍ LES VA!!!!!!!
=========================COMIENZO========================
INTRO(EL INTRO EMPIEZA CON LA BATERIA Y EL TECLADO Y SI LO
QUIEREN ACOMPAÑA CON LA GUIATARRA AGANLO DE ESTA FORMA:

 INTRO(Bm G D A)

   VERSOS:
Bm         Em
pa, pararara
       F#
pa, para
Bm         Em
pa, pararara
       F#
pa, para

Bm         Em           F#
despierto con la madrugada
Bm         Em             F#
estrecho fuerte a mi almohada
Bm         Em
recuerdos me acosan
F#
no puedo dormir
Bm                Em
una lagrima estallando
       F#
en mi sabana


Bm         Em
pa, pararara
       F#
pa, para
Bm         Em
pa, pararara
       F#
pa, para


Bm        Em
me doy vueltas
      F#
y mi cama esta vacia
Bm       Em
me doy golpes secos
 A
contra la pared
Bm         Em
el cuarto encaro
      F#
rota su fotografia
Bm
una locura
  Em        F#
invade a mi ser, oh

(BUENO LO ANTERIOR FUE EL VERSO Y BIENE EL CORO QUE ES DE ESTA
FORMA)

CORO:
Bm        G     D5     A
me siento so, solo, solo
Bm        G       D5       A
me siento solo y sin su amor
Bm         G     D5     A
me siento so, solo, solo
Bm         G    D5       A
siento morirme sin su amor.
 (FIN DEL CORO)

y este maldito
Bm     Em7        F#
frio que no me deja dormir
Bm                Em7
y este calor de su recuerdo
A
con dolor(con dolor)
  Bm             Em7
estoy tan abandonado
           F#
como un espejo frio,frio
Bm                 Em7
otra lagrima estallando
        A
en mi sabana, oh

CORO:
Bm        G     D5     A
me siento so, solo, solo
Bm        G       D5       A
me siento solo y sin su amor
Bm         G     D5     A
me siento so, solo, solo
Bm         G    D5       A
siento morirme sin su amor
..........................................................
(BUENO LO QUE SIGUE ES UN SOLO QUE LO HACE EL TECLADO PERO
YO LO PONGO PARA QUE LO PUEDAN TOCAR CON LA GUITARRA Y ESTA
BIEN SACADO NO CREO QUE TENGA ERRORES AHÍ LES VA:
1.-2-2-2-2-0-0-0-0-0-2---2-2-------2-----|
2.-3-3-3-3-0-0-0-0-0-2---2-2-----2---2---|
3.-----------------------------3-------3-|
4.---------------------------------------|
5.---------------------------------------|
6.---------------------------------------|

1.-----1--2-2-2-2--0--0--2--2-2----------|
2.---2----3-3-3-3--0--0--2--2-2----------|
3.-3-------------------------------------|
4.---------------------------------------|
5.---------------------------------------|
6.---------------------------------------|

1.-----7--7-7-7-7--7--7--7--7-7----------|
2.---7----7-7-7-7--8--8--9--9-9----------|
3.-7-------------------------------------|
4.---------------------------------------|
5.---------------------------------------|
6.---------------------------------------|

1.-----7--7-7--7--7--7-7~----------------|
2.---7----7-8--8--9--8-8~----------------|
3.-7-------------------------------------|
4.---------------------------------------|
5.---------------------------------------|
6.---------------------------------------|
 (FIN DEL SOLO)

Bm        G     D5     A
me siento so, solo, solo
Bm        G       D5       A
me siento solo y sin su amor
Bm         G     D5     A
me siento so, solo, solo
Bm         G    D5       A
siento morirme sin su amor

-Solo solo soledad   (se repite hasta el final)
Solo solo soledad

(TERMINA DE ESTA FORMA CON LA GUITARRA ELECTRICA)
1.--------------|
2.--------------|
3.--------------|
4.-9-9--9-------|
5.-9-9--9-------|
6.-7-7--7-------|
==============================FIN========================
BUENO AMIGOS ESO ES TODO LO QUE LES DEJO
QUE MAS NECESITAN
SE LAS DEJE "corregida completa Y correcta" BUENO ESO
ES TODO ESPERO QUE LES SALGA EL SOLO Y COMO SIEMPRE
SE LOS
DIGO "practiquen" OK BUENO SUERTE CON EL TEMA CHAÚ!!

 LEANDRO_TRANSCRIPCIONES@  14/01/06 16:25
     CHAÚ!!!!!!!!!
Suggest correction
Give kudos to tab author, rate the tab!
1 2 3 4 5
comments
print report bad tab
guest
You may want to rate the tab now too:
select rating
Wanna post a correction for this tab? Suggest correction