Oops, an error
Loading. Please wait.

Somos Mar Y Arena Tab

version 1
version 1

Whole song

102 views 1 this week
no commentswrite comment
1 2 3 4 5
3 more votes to show rating
add to favorites
launch autoscroll
font size
0
reset
how to read this tab
guitar tuner
×
Best way to learn
"Somos Mar Y Arena"
Autoscroll
slow
fast
+/-
esc
set tempo
stop
SOLO: (2:58)

e|---------------------3--------3h5-3-3h5p3-------7~--|
B|---------------3-7-7----------------------7-5-3-----|
G|----------/4-5---------5-4-5~-----------------------|
D|----------------------------------------------------|
A|----------------------------------------------------|
E|----------------------------------------------------|

e|------------------------14-12-------------------------------|
B|---------12-15-13-12----------13~---/20-20-19-19-17-15-15~--|
G|--/12-14-------------14-------------/21-21-19-19-17-17-16~--|
D|------------------------------------------------------------|
A|------------------------------------------------------------|
E|------------------------------------------------------------|


e|--------------------------------------------------|
B|---15-15-15-15-15-15/17--17-17-17-17-17-17/19-19--|
G|------16----16----16/17-----17----17----17/19-19--|
D|--------------------------------------------------|
A|--------------------------------------------------|
E|--------------------------------------------------|


e|-----------------------------12----14----15----17----17p19-17-15~--|
B|-----------------12-13-15-13----15----17----19----20---------------|
G|-----------12-14---------------------------------------------------|
D|--12-14-15---------------------------------------------------------|
A|-------------------------------------------------------------------|
E|-------------------------------------------------------------------|
Suggest correction
Give kudos to tab author, rate the tab!
1 2 3 4 5
comments
print report bad tab
guest
You may want to rate the tab now too:
select rating
Wanna post a correction for this tab? Suggest correction