Oops, an error
Loading. Please wait.

Somos Mar Y Arena Tab

version 2
version 2

Whole song

93 views 1 this week
no commentswrite comment
1 2 3 4 5
3 more votes to show rating
add to favorites
launch autoscroll
font size
0
reset
how to read this tab
guitar tuner
×
Best way to learn
"Somos Mar Y Arena"
Autoscroll
slow
fast
+/-
esc
set tempo
stop
Esta es la primera ves que voy a exponer una partitura,
esta cancion me gustaba y cuando fui a buscar un tab no lo
encontre y decidi aserlo yo mismo. Puede que no sea muy buena
la partitura pero es que  la saqué en 5 min XD
Espero que  so guste !!!!

Afinación estándar: EADGBE

INTRO

1ª guitarra
|---------------------------------------------------------
|---------------------------------------------------------
|--------4---4-------8---8-------9---9----------5---9-----
|------5---x-5-----9---x-9-----9---x-9--------5---x-5-----
|----5-----------9-----------7--------------3------?------
|---------------------------------------------------------

2ª guitarra
|--3--x--3--x--7--x--7--x--7--x--7--x--7--x--3--x--3----
|--3--x--3--x--7--x--7--x--8--x--8--x--8--x--5--x--5----
|--2--x--2--x--8--x--8--x--9--x--9--x--9--x--5--x--5----
|-------------------------------------------------------
|-------------------------------------------------------
|-------------------------------------------------------
 Esto se repite durante 11 veces en la canción

Para que salga bien esta parte hay que tocarla con agilidad y
sincronizando bien las dos guitarras.( tambien se puede omitir
la segunda guitarra )
Cuando dice: somos como mar y como arena?]
**
 1ª guitarra                                     4 veces
|--------------------------------------------
|--------------------------------------------
|-------4---4------7--7------4---4-----7---7-
|------5--x-5----7--x-7-----5--x-5----7--x-7-
|----5---------5----------5---------5--------
|--------------------------------------------

2ª guitarra
|--3--x--3--x--5--x--5--x--5--x?-5--x--5--x--5--x-
|--3--x--3--x--7--x--7--x--5--x--5--x--7--x--7--x-
|--2--x--2--x--7--x--7--x--5--x--5--x--7--x--7--x-
|-------------------------------------------------
|-------------------------------------------------
|-------------------------------------------------

Y acto seguido después de esto va de nuevo el intro.
 Después del intro de nuevo el apartado **
 Luego va con el pedal ( Wah-wah ) los siguientes acordes :

|--3~--3-xxx-7~--7-xx?7~--7-xxx-8~--8---
|--3~--3-xxx-7~--7-xx?9~--9-xxx-8~--8---     2 veces
|--4~--4-xxx-8~--8-xx?9~--9-xxx-9~--9---
|--5~--5-xxx-9~--9-xx?9~--9-xxx-10~-10--
|--5~--5-xxx-9~--9-xx?7~--7-xxx-10~-10--
|--3~--3-xxx-7~--7-xx?7~--7-xxx-8~--8---

( ~ : dejar sonar el acorde no es hacer la vibracion )

luego se sigue asiendo pero sin pedal.

SOLO.  ( un compañero lo tiene ya subido y no lo voy a repetir
 por que es muy bueno )

Luego se rasguean los acordes del apartado **
Suggest correction
Give kudos to tab author, rate the tab!
1 2 3 4 5
comments
print report bad tab
guest
You may want to rate the tab now too:
select rating
Wanna post a correction for this tab? Suggest correction