Oops, an error
Loading. Please wait.

Te Llevaré Al Cielo Bass Tab

version 2
version 2

Whole song

Interactive

65 views 1 this week
no commentswrite comment
1 2 3 4 5
3 more votes to show rating
add to favorites
launch autoscroll
font size
0
reset
guitar tuner
Autoscroll
slow
fast
+/-
esc
set tempo
stop
Help us to improve Ultimate-Guitar.com Take our survey!
×
OIGAN Q BUENA CANCION ESTA AH, Y PUES ACA ESTAN LOS TABS PARA
BAJO, SI TIENES 5 CUERDAS, AL FINAL D LA CANCION HAY UNA PEKEÑA
VARIACION DONDE EN ALGUNAS PARTES TIENEN Q TOCAR UNA OCTAVA MAS
GRAVE...JAJA BUENO YA STA BIEN, ESTOS SON LOS TABS:
( TIENEN Q DARLE EL RITMO PARA Q SUENE BIEN )

INTRO:

G|------------11--11(h)12--11------------------------------
D|--12/14---------------------14-12------------------------
A|-------------------------------------14(h)12-14-----14---
E|---------------------------------------------------------
B|---------------------------------------------------------

VERSO I:

G|------------|-----------|--------------2-|-2--------------2--
D|-2----0---2-|-0-2---012-|----------3/4---|---4--------3/4----
A|----2-------|-----2-----|-----2--2-------|------2---2--------
E|------------|-----------|02--------------|-------------------
B|------------|-----------|----------------|-------------------

G|-----|----------------------|2----------------
D|---0-|--(--repite las 3-----|--4--99--9-------
A|-2---|--primeras partes del-|-----------9-----
E|-----|--verso de arriba)----|--------------7--
B|-----|----------------------|-----------------

G|-----------|-----------------|------------2-|2-------------2-
D|0-2----0-2-|------0------0-2-|--------3/4---|---4-------3/4--
A|-----2-----|0(h)2------2-----|----2-2-------|------2--2------
E|-----------|--------0--------|02------------|----------------
B|-----------|-----------------|--------------|----------------

G|-----|----------|-----------|------------2-|2----44-42-4---
D|---0-|-2----0---|-0-2---012-|--------3/4---|---4------------
A|-2---|----2-----|-----2-----|----2-2-------|----------------
E|-----|--------0-|-----------|02------------|----------------
B|-----|----------|-----------|--------------|----------------

G|----------|-----|------7-9-----
D|------0---|-----|----------9--
A|0(h)2-----|-----|-7/9----------
E|--------0-|-----|--------------
B|----------|-----|--------------

CORO:

G|------------------2-------|-----------------2---------
D|2-5-----2------4--------4-|2-5--2---2-----4----4/5--4-
A|------3----5---------2----|-------3----5--------------
E|--------------------------|---------------------------
B|--------------------------|---------------------------

G|------------------2-------|-----------------2-----------
D|2-5-----2------4--------4-|2-5--2---2-----4-------------
A|------3----5---------2----|-------3----5-------5--6--7-
E|--------------------------|-----------------------------
B|--------------------------|-----------------------------

G|---|------7-9-----
D|---|----------9--
A|---|-7/9----------
E|---|--------------
B|---|--------------


VERSO II:

G|------------|-----------|--------------2-|-2----------------
D|-2----0---2-|-0-2---012-|----------3/4---|---4--------------
A|----2-------|-----2-----|-----2--2-------|------2--2-0--2--
E|------------|-----------|02--------------|------------------
B|------------|-----------|----------------|------------------

G|------------|-----------|--------------2-|2----------------
D|-2----0---2-|-0-2---01--|----------3/4---|--4--99--9-------
A|----2-------|-----2-----|-----2--2-------|-----------9-----
E|------------|----------0|-02-------------|--------------7-
B|------------|-----------|----------------|-----------------

G|-------------------|------------2-|2-------------2-
D|-0-2-------22-2----|--------3/4---|---4-------3/4--
A|-----2---2------2--|----2-2-------|------2--2------
E|-------0---------0-|02------------|----------------
B|-------------------|--------------|----------------

G|-------------------|------------2-|2-------------2-
D|-0-2-------22-2----|--------3/4---|---4-------3/4--
A|-----2---2------2--|----2-2-------|------2--2------
E|-------0---------0-|02------------|----------------
B|-------------------|--------------|----------------

G|-----------|---|------7-9-----
D|------0----|---|----------9--
A|0(h)2---7--|---|-7/9----------
E|-----------|---|--------------
B|-----------|---|--------------

CORO:

G|------------------2-------|-----------------2---------
D|2-5-----2------4--------4-|2-5--2---2-----4----4/5--4-
A|------3----5---------2----|-------3----5--------------
E|--------------------------|---------------------------
B|--------------------------|---------------------------

G|------------------2-------|-----------------2-----------
D|2-5-----2------4--------4-|2-5--2---2-----4----4/5--4---
A|------3----5---------2----|-------3----5----------------
E|--------------------------|-----------------------------
B|--------------------------|-----------------------------

2:43  instrumental

G|--------------------------|--------------------------|----
D|-2--222--------------0----|0-2-2222------------------|--0-
A|---------3-3-3--2--2---2--|---------3-3-3--2--2-0-2--|-2--
E|--------------------------|--------------------------|----
B|--------------------------|--------------------------|----

G|--------------------------|--------------------------|-----
D|-2--222--------------0----|0-2-2222------------------|-----
A|---------3-3-3--2--2---2--|---------3-3-3--2--2-0-2--|-2-1-
E|--------------------------|--------------------------|-----
B|--------------------------|--------------------------|-----

3:03

G|----------|------------|------------------0---|-------|-----
D|----2-----|------4-----|---0-2---0-22----0--2-|---0-2-|-----
A|-0-----0--|-0-2-----2--|-2------2------2------|-2-----|-2-1-
E|----------|------------|----------------------|-------|-----
B|----------|------------|----------------------|-------|-----

G|----------|------------|------------------0---|-------|-----
D|----2-----|------4-----|---0-2---0-22----0--2-|---0-2-|-----
A|-0-----0--|-0-2-----2--|-2------2------2------|-2-----|-2-1-
E|----------|------------|----------------------|-------|-----
B|----------|------------|----------------------|-------|-----

G|----------|------------|-------0-----|------2-----|-------|--
D|----2-----|------4-----|-------------|---0-----0--|-------|--
A|-0-----0--|-0-2-----2--|-2-3------3--|-3----------|-6-7---|--
E|----------|------------|-------------|------------|-------|--
B|----------|------------|-------------|------------|-------|--

3:53

G|------77--------
D|-7/9-------9---
A|---------9------
E|----------------
B|----------------

FINAL:

G|----------------------2-------|-----------------2---------
D|------------2------4--------4-|2-5--2---2-----4----4/5--4-
A|--------2-3----5---------2----|-------3----5--------------
E|-0--3-------------------------|---------------------------
B|------------------------------|---------------------------

G|------------------------------|-----------------2---------
D|----------------------------4-|2-5--2---2-----4----4/5--4-
A|--------2-3--------------2----|-------3----5--------------
E|-0--3-------0------2--5-------|---------------------------
B|---------------3--------------|---------------------------

...Y ASI VAN HACIEDOLE VARIACIONES, PARA LOS Q TIENEN BAJO D 4
CUERDAS, SOLO IGNOREN LA 5º CUERDA Y TOKEN ESE 3 D LA 5º CUERDA
EN EL TRASTE 5 D LA 3º CUERDA, ESPERO Q LES HAYA GUSTADO...

                        - FIN-  jeje  o_O'
Suggest correction
Give kudos to tab author, rate the tab!
1 2 3 4 5
comments
print report bad tab
guest
You may want to rate the tab now too:
select rating
Wanna post a correction for this tab? Suggest correction