Oops, an error
Loading. Please wait.

Te Lloré Un Río Chords

version 4
version 4

Whole song

Interactive

119 views 12 this week
no commentswrite comment
1 2 3 4 5
2 more votes to show rating
add to favorites
launch autoscroll
font size
0
reset
transpose
0
reset
display chords
guitar tuner
×
Best way to learn
"Te Lloré Un Río"
Autoscroll
slow
fast
+/-
esc
set tempo
stop
MUY BUENA CANCION, FACIL DE TOCAR. ESPERO QUE LES SEA UTIL!

Intro :
RIFF 1
E -----2-----5------2------------2-----0-0---0-----
B ---3---3------3-----3--------3---3------------3--
G -2-------2------2------2---2-------2-----2-------
D -------------------------------------------------
A -------------------------------------------------
E -------------------------------------------------

RIFF2
E ---------------2-2-3-5-3-2-3---------------------
B ---3-2-0-2-0-2-3-------------3-3-2-0-------------
G ---------------2---------------------------------
D -------------------------------------------------
A -------------------------------------------------
E -------------------------------------------------

   D                      A
   Yo aquí llorandote un río
                    B 
   lanzandome al olvido
                   A
   que cosa más injusta amor
   D                       A
   Fuiste matando mis pasiones
                       B 
   tachando mis canciones
                    G
   me tenías pisoteado
                   A  riff
   estaba desahuciado
              B             A
   No es justo, no bebé?  Oh oh e oh

    G                     A
   Pero este mundo ya giró
                    B 
   y ahora te toca perder  Oh oh e oh


   D    B                 G        A
   Bebe te lloré todo un río  (oh bebe bebe)
   D    B                 G        A
   Bebe te lloré? a reventar  (oh bebe bebe)
   D    B                 G        A
   Oh no no nooo, no tienes corazón  [noo]
                D
   No te vuelvo a amar
        B          G
   Te lloré? todo un río
     A               D
   ahora llorame un mar

   Ya no me busques ya es muy tarde
   ya tengo otro amor
   una chula sirena que nada en mi piel
   Yo te perdono no hay rencores
   tan sólo los dolores
   Mi alma está  arañada
   lloré? el suelo mojado
   No es justo no bebé? oh oh e oh
   D                  B 
   VerdaD que un río te lloré,
   G                 A
   verdad que no te vuelvo  A AMAR

   D            B                G
   oh no no no, no te vuelvo a amar (uh uh uh)

   D             B              G
   oh no no no, pierdete en tu mar

   D            B         G
   llórame llórame llórame
Suggest correction
Give kudos to tab author, rate the tab!
1 2 3 4 5
comments
print report bad tab
guest
You may want to rate the tab now too:
select rating
Wanna post a correction for this tab? Suggest correction