Oops, an error
Loading. Please wait.

Te Lloré Un Río Tab

version 2
version 2

Interactive

133 views 6 this week
no commentswrite comment
1 2 3 4 5
3 more votes to show rating
add to favorites
launch autoscroll
font size
0
reset
how to read this tab
guitar tuner
Autoscroll
slow
fast
+/-
esc
set tempo
stop
Help us to improve Ultimate-Guitar.com Take our survey!
×
HOLA LLEGO EL TURNO DE LA CANCIÓN 100% TRISTE JAJAJAJA
EH VISTO QUE TODAS LAS VERCIONES QUE ESTAN EL ESTA PAGINA
ESTAN BIEN Y LA QUE YO VOY A DEJAR ES SIMILAR OK BUENO AHI
 LES VA:
===========================COMIENZO============================
INTRO:
1.-----4-----7------4------------4-----7-7---4-----|
2.---5---5------5-----5--------5---5-------------7-|
3.-4-------4------4----------4-------4-----4-------|
4.-------------------------------------------------|
5.-------------------------------------------------|
6.-------------------------------------------------|

1.-----4-----7------4------------4-----7-7---4-----|
2.---5---5------5-----5--------5---5------------7--|
3.-4-------4------4----------4-------4-----4-------|
4.-------------------------------------------------|
5.-------------------------------------------------|
6.-------------------------------------------------|

1.-----4-----7------4----------4-----4-7-4---------|
2.---5---5------5-----5------5---5---5-9-5---5-7-5-|
3.-4-------4------4--------4-------4-------4---6-4-|
4.-------------------------------------------------|
5.-------------------------------------------------|
6.-------------------------------------------------|

 VERSO:
E                      B
Yo aqui llorandote un rio
                 C#m
mandandome al olvido
                B
que cosa mas injusta amor
E                      B
Fuiste matando mis pasiones
1.-2-2-2------------|
2.-------4-4-4--2-2-|
                  C#m
tachando mis canciones
                A
me tenias pisoteado
               B
estaba desahuciado
                   C#m          B
No es justo, no bebe Oh oh e oh
1.-7-7-7-------------------|
2.--------9-9-9-7-7-7------|
3.---------------------9-6-|
B A# A                      B
     Pero este mundo ya giro
                        C#m            B
     y ahora te toco perder  Oh oh e oh

(AHORA EL CORO:
(MIENTRAS SE TOCA EL INTRO LA OTRA GUITARRA VA HACIENDO EN
INTRO DE FONDO)
CORO:
E   C#m            A          B
Bebe te llore todo un rio  (bebe bebe)
E   C#m            A          B
Bebe te llore a reventar  (bebe bebe)
E           C#m             A      B
Oh no no nooo, no tienes corazon  [noo]
No te vuelvo a amar
 C#m           A
Te llore todo un rio
 B             E
ahora llorame un mar.
1.------------------------------------|
2.--------------------------12--10--9-|
3.----------------8--9--11------------|
4.---------9--11----------------------|
5.-11--12-----------------------------|
6.------------------------------------|
(CON LOS MISMOS ACORDES DE LOS VERSOS)
Ya no me busques ya es muy tarde
ya tengo otro amor
una chula sirena que nada en mi piel
Yo te perdono no hay rencores
solo los dolores
Mi alma esta arañada
llore en suelo mojado
No es justo no bebe,oh oh e oh.
B A# A                      B
     Pero este mundo ya giro
                        C#m            B
     y ahora te toco perder  Oh oh e oh


CORO:
E   C#m            A          B
Bebe te llore todo un rio  (bebe bebe)
E   C#m            A          B
Bebe te llore a reventar  (bebe bebe)
E           C#m             A      B
Oh no no nooo, no tienes corazon  [noo]
No te vuelvo a amar
 C#m           A
Te llore todo un rio
 B             E
ahora llorame un mar.

(AHORA BIENE UN SOLO QUE ES DE ESTA MANERA)

SOLO:
1.---------------------|
2.---------------------|
3.----------------8--9-|
4.---------9--11-------|
5.-11--12--------------|
6.---------------------|

1.--12--12--12--11--11--11-----9--9--9--7--7--7--7-12--11-|
2.--14--14--14--12--12--12----10-10-10--9--9--9--9-14--12-|
3.--------------------------------------------------------|
4.--------------------------------------------------------|
5.--------------------------------------------------------|
6.--------------------------------------------------------|

1.--------------------------------------------------------|
2.----------------------12--10--9-------------------------|
3.----------------8--9-------------9--11------------------|
4.---------9--11------------------------------------------|
5.-11--12-------------------------------------------------|
6.--------------------------------------------------------|

1.------------------------------9--12--11-----------------|
2.-9-9-9-9-9--10-10-10--10--12----------------------------|
3.--------------------------------------------------------|
4.--------------------------------------------------------|
5.--------------------------------------------------------|
6.--------------------------------------------------------|

E                 C#m           A              B
Verdad que un rio te llore, verdad que no te vuelvo a amar
E            C#m              A     B
oh no no no, no te vuelvo a amar

E                 C#m           A                 B
Verdad que un rio te llore, verdad que no te vuelvo a amar
E                C#m              A    B
oh no no noo no, pierdete en tu mar

E                 C#m           A                 B
Verdad que un rio te llore, verdad que no te vuelvo a amar
E                   C#m   A     B
llorame, llorame, llorame

(SE REPITE HASTA EL FINAL)
=============================FIN==============================
MUY BIEN AMIGOS ME ENCANTO HACER ESTA CANCIÓN PARA TODOS
USTEDES LA PARTE QUE MAS ME GUSTA DE ESTA CANCIÓN ES EL SOLO
Y LO HISE PARA QUE LO PUEDAN TOCAR IGUAL HACI QUE ESPERO QUE
ESTE BIEN OK "practiquen" OK CHAÚ.

LEANDRO_TRANSCRIPCIONES@  17/01/06 16:29hs
  CHAÚ!!!!!!!!!
Suggest correction
Give kudos to tab author, rate the tab!
1 2 3 4 5
comments
print report bad tab
guest
You may want to rate the tab now too:
select rating
Wanna post a correction for this tab? Suggest correction