Oops, an error
Loading. Please wait.

Te Lloré Un Río Tab

version 2
version 2

Whole song

Interactive

by Maná
86 views 1 this week
no commentswrite comment
1 2 3 4 5
3 more votes to show rating
add to favorites
×
Save as Personal and add changes to this tab that will be seen only by you. Learn more ›
×
You can save this tab as Personal to edit and correct it or add notes. All changes will be seen only by you. Learn more »
save as personal
new!
launch autoscroll
font size
0
reset
how to read this tab
guitar tuner
Autoscroll
slow
fast
+/-
esc
set tempo
stop
Author
Unregistered
Esta es una versiòn 100% exacta y nueva.
Aunque un poco 'viejo', este tema sigue gustando mucho,
así que aqui les traigo el tab completo.
Ojalá la puedan sacar fácilmente y disfrutarla,
tanto como yo lo hice.

Intro: E - C#m - A - B X 2 

|-----------7------------------------------|
|-----9-----------9--------9-----7-7---9-7-|
|---9---9-----9-----9----9---9-------------| X 2
|-9-------9-----9------9-------9-----9-----|
|------------------------------------------|
|------------------------------------------|
                                *
|-----------7--------------------5/7-------|
|-----9-----------9--------9-----5/7-9-----|
|---9---9-----9-----9----9---9-------9-9-9-|
|-9-------9-----9------9-------9-------9-9-|
|------------------------------------------|
|------------------------------------------|

Versos

E                      B                   C#m
Yo aquí llorándote un río mandándome al olvido

               B
Que cosa más injusta amor

E                      B
Fuiste matando mis pasiones

                 C#m
Tachando mis canciones

               A
Me tenías pisoteado

|-------|
|-5-7\5-|
|-6-8\6-|
|-------|
|-------|
|-------|

              B                     C#m
estaba desasueado no es justo, no bebé, oh oh eh oh

|------------------------------|
|-9-10-10/12-10-9--------------|
|-----------------10-8-7-------|
|------------------------9-8-7-|
|------------------------------|
|------------------------------|

Pre coro: B - A# - A

A                     B
Pero este mundo ya giró

|-11/12-11-|
|-12/14-12-|
|----------|
|----------|
|----------|
|----------|
   
                C#m
Y ahora te tocó perder 

|------------|
|------------|
|-------4-6--|
|-4/6-6------|
|------------|            B
|------------| oh oh eh oh

Coro
- se toca la 1° parte de la Intro X 4 y se termina en E - 

  E C#m                 A     B    
Bebé, te lloré todo un río (bebé, bebé)

  E C#m              A      B
Bebé, te lloré a reventar (bebé, bebé)

    E         C#m            A        B
Oh, no no nooo, no tienes corazón, oh

                E
No te vuelvo a amar

C#m              A
Te lloré todo un río

B             E
Ahora llórame un mar
|---------------------|
|---------------7-9---|
|-------6-8-8-9-----9-|
|-6-7-9---------------|
|---------------------|
|---------------------|

'...ya es muy tarde'

|--9-11-|
|-10-12-|
|-------|
|-------|
|-------|
|-------|

'...una chula sirena'

|--9-11-12-11--9-7-|
|-10-12-14-12-10-9-|
|------------------|
|------------------|
|------------------|
|------------------|

'...no hay rencores'

|-11--9/11--x----------|
|-12-10/12--x----------|
|-----------x--------6-|
|-----------x--6-7-8---|
|-----------x----------|
|-----------x----------|

'...no, bebé'
                 Riff a pre Coro
|-10-11-11/12-12-------------|
|-10-12-12/14-14----12-11-10-|
|----------------------------|
|----------------------------|
|----------------------------|
|----------------------------|
Pre coro:

'...este mundo ya giró, y ahora te tocó perder'

|-11/12-11----7/9-9-9\7-7-7-7-9-4-|
|-12/14-12----7/9-9-9\7-7-7-7-9-5-|
|---------------------------------|
|---------------------------------|
|---------------------------------|
|---------------------------------|

Coro

Solo

|--------------11/12-12-12\11-11-11-11\-9--9--9--9\7-7--7-7-7-12-11-|
|--------------12/14-14-14\12-12-12-12\10-10-10-10\9-9--9-9-9-14-12-|
|-------------------------------------------------------------------|
|-------6-7-9\------------------------------------------------------|
|-6-7-9-------------------------------------------------------------|
|-------------------------------------------------------------------|

|---------------7-------------------------------------9-12-11-|
|-----------------10-9--5-5/7-9-9-9-9-9-9/10-10----10---------|
|---------6-8-9----------------------------------9------------|
|---6-7-9-----------------------------------------------------|
|-9-----------------------------------------------------------|
|-------------------------------------------------------------|

- la parte final va con el la 1° parte del Intro, hasta el Fade Out. -

Un Saludo a todo el LHT y al 4°H, 'The Best', specially 
para el HICHO, Jaramillo, San MaRTín, JHOn, el Huaso, y a todas
las chicas.
Consultas, dudas, comentarios, a mi mail.
          
     --------BYE----------
Suggest correction
Give kudos to tab author, rate the tab!
1 2 3 4 5
comments
print report bad tab
guest
Wanna post a correction for this tab? Suggest correction