Oops, an error
Loading. Please wait.

Te Lloré Un Río Tab

version 4
version 4

Interactive

63 views 3 this week
no commentswrite comment
1 2 3 4 5
3 more votes to show rating
add to favorites
launch autoscroll
font size
0
reset
how to read this tab
guitar tuner
Autoscroll
slow
fast
+/-
esc
set tempo
stop
Help us to improve Ultimate-Guitar.com Take our survey!
×
Esta es la primer canción que subo y espero queden complacidos!
Ya que está identica a la versión del disco. Cabe aclarar que esto
es solo la lead guitar, osea todo lo que toca el vampiro.

Nota: Las prtes de letra con acordes son los acordes que va tocando
      el vampiro. Aunque la guitarra de Fer toca B el Vampiro
      toca B7 en el requinto.

Al final también incluye el Outro Solo de la versión en vivo.

Del disco: Maná en Vivo (Disco1 - track 7)

Intro

e|--------------------------------------------------------------|
B|---------9-----12-----9----------------9-----7-7---9-7--------|
G|-----9-----9------9-----9----------9-----9-------9------------|  X 2
D|---9---9-----9------9------------9---9-----9------------------|
A|--------------------------------------------------------------|
E|--------------------------------------------------------------|

e|----------------------------------------------/2--4-----------|
B|---------9-----12-----9----------------9------/4--5--5--5-----|
G|-----9-----9------9-----9----------9-----9-----------4--4-----|
D|---9---9-----9------9------------9---9-----9------------------|
A|--------------------------------------------------------------|
E|--------------------------------------------------------------|

E                        B7
Yo  aquí llorándote un río

                  C#m
mandándome al olvido

                       B7
que cosa más injusta amor

E
Fuiste matando mis pasiones

e|---------------------|
B|---10--10/9--9--7----|
G|---11--11/9--9--8----|
D|---------------------|
A|---------------------|
E|---------------------|

tachando mis canciones

e|------------------|
B|------------------|
G|-------4-6--------|  muy bajito de volumen
D|---4-6------------|
A|------------------|
E|------------------|

me tenias pisoteado

e|------------------|
B|---2/4--4/2-------|
G|---2/4--4/2-------|
D|------------------|
A|------------------|
E|------------------|

                B7
Estaba desahuciado

                 C#m
no es justo no bebe

oh oh eh oh

e|---4-5-5h7-5-4-------------------|
B|---------------7-5-4--4-3-2------|
G|----------------------4-3-2------|
D|---------------------------------|
A|---------------------------------|
E|---------------------------------|

A
Pero este mundo ya giró

e|---11/12--11------|
B|---12/14--12------|
G|------------------|
D|------------------|
A|------------------|
E|------------------|

Y ahora te toco perder

e|------------------|
B|------------------|
G|----------4-6-----|
D|---4-6------------|
A|------------------|
E|------------------|

          B7
oh oh eh oh

bebe te llore todo un rió (bebe,bebe)

e|--------------------------------------------------------------|
B|---------9-----12-----9----------------9-----7-7---9-7--------|
G|-----9-----9------9-----9----------9-----9-------9------------|  X 2
D|---9---9-----9------9------------9---9-----9------------------|
A|--------------------------------------------------------------|
E|--------------------------------------------------------------|

                                                              E
                                               ahora llórame un mar.
e|-------------------------------------------------------------0-----|
B|---------9-----12-----9----------------9-----7-7---9-7-------0-----|
G|-----9-----9------9-----9----------9-----9-------9-----------1-----|
D|---9---9-----9------9------------9---9-----9-----------------2-----|
A|-------------------------------------------------------------2-----|
E|-------------------------------------------------------------0-----|

e|--------------------------------------|
B|----------------------7-9-------------|
G|---------6-8------8-9-----9-----------|
D|---6-7-9------------------------------|
A|--------------------------------------|
E|--------------------------------------|

Ya no me busques ya es muy tarde

e|--9---11----------|
B|--10--12----------|
G|------------------|
D|------------------|
A|------------------|
E|------------------|

                C#m
Ya tengo otro amor

una chula sirena

e|-------9---12--11--9---9-----|
B|---12--10--14--12--10--7-----|
G|---13------------------------|
D|-----------------------------|
A|-----------------------------|
E|-----------------------------|
                 E
Que nada en mi piel

Yo te perdono no hay rencores

e|---11--9/11-------|
B|---12--10/12------|
G|------------------|
D|------------------|
A|------------------|
E|------------------|

solo los dolores

e|------------------|
B|------------------|
G|-------4-6--------|
D|---4-6------------|
A|------------------|
E|------------------|

                 A
mi alma esta arañada

                  B
llore en suelo mojado

no es justo, no bebe

e|---9---11--11/12--12-------|
B|---10--12--12/14--14-------|
G|---------------------------|
D|---------------------------|
A|---------------------------|
E|---------------------------|

          B7
oh oh eh oh

e|---7-6-5----------|
B|---7-6-5----------|
G|------------------|
D|------------------|
A|------------------|
E|------------------|

Pero este mundo ya giro

e|---/12--11--------|
B|---/14--12--------|
G|------------------|
D|------------------|
A|------------------|
E|------------------|

Y ahora te toco perder

e|-------------------------------------------|
B|---12/14--14--14/12--12--12--12/----9------|
G|---11/13--13--13/11--11--11--11/----9------|
D|-------------------------------------------|
A|-------------------------------------------|
E|-------------------------------------------|

         B7
oh oh eh oh

¡bebe! te llore todo un rio (bebe,bebe)

e|--------------------------------------------------------------|
B|---------9-----12-----9----------------9-----7-7---9-7--------|
G|-----9-----9------9-----9----------9-----9-------9------------|  X 3
D|---9---9-----9------9------------9---9-----9------------------|
A|--------------------------------------------------------------|
E|--------------------------------------------------------------|

                                                              E
                                               ahora llórame un mar.
e|-------------------------------------------------------------0-----|
B|---------9-----12-----9----------------9-----7-7---9-7-------0-----|
G|-----9-----9------9-----9----------9-----9-------9-----------1-----|
D|---9---9-----9------9------------9---9-----9-----------------2-----|
A|-------------------------------------------------------------2-----|
E|-------------------------------------------------------------0-----|

Solo
                  E                         C#m
e|---------------|--/12--12--12/11--11--11--|11/9---9---9---9/---7-|
B|---------------|--/14--14--14/12--12--12--|12/10--10--10--10/--9-|
G|---------1-2-4-|--------------------------|----------------------|
D|---1-2-4-------|--------------------------|----------------------|
A|---------------|--------------------------|----------------------|
E|---------------|--------------------------|----------------------|

   A             B                 E
e|-7--7--7--12--|11---------------|-----------------|
B|-9--9--9--14--|12---------------|---12-10-9-------|
G|--------------|---------------8-|9-------------9--|
D|--------------|--------7-9-11---|-----------------|
A|--------------|---9-11----------|-----------------|
E|--------------|-----------------|-----------------|

  C#m                     A                B
e|-------tr--------------|----------------|--------|
B|-------9--9-9----9--10-|10-------14--17-|16------|
G|-9h11------------------|------14--------|--------|
D|-----------------------|---16-----------|--------|
A|-----------------------|----------------|--------|
E|-----------------------|----------------|--------|

Verdad que un río te lloré... (Hasta el final de la canción)

e|--------------------------------------------------------------|
B|---------9-----12-----9----------------9-----7-7---9-7--------|
G|-----9-----9------9-----9----------9-----9-------9------------|
D|---9---9-----9------9------------9---9-----9------------------|
A|--------------------------------------------------------------|
E|--------------------------------------------------------------|

EXTRA:

Outro Solo a partir del minuto 5:47 (Maná en Vivo: Disco 1 - Track 7)

Como te extraño Chiquitita!

   E                         C#m
e|-tr------------------------|-----------------------------|
B|-9--10---9-10--(8)/9-------|-----------------------------|
G|--------------------11-9-8-|9-8h9p8----------------------|
D|---------------------------|------------11-9-11-----11-9-|
A|---------------------------|-----------------------------|
E|---------------------------|-----------------------------|

   A               B                   E
e|----------------|-------------------|------------------------------|
B|----------------|-------------------|--------------------------7-9-|
G|------------9-8-|9--8h9p8-----------|-----8-9----8-9-11-8-9-11-----|
D|-7----7-9-11----|---------11-9------|9-11-----11-------------------|
A|----------------|-------------------|------------------------------|
E|----------------|-------------------|------------------------------|

  C#m                  A
e|-tr-----------------|-----------------------------|
B|-9------------------|-----------------------------|
G|---11--9-8-9---9----|9-11-8-9----8---------8-9-11-|
D|--------------------|---------11---9-11-----------|
A|--------------------|-----------------------------|
E|--------------------|-----------------------------|

   B                               E          C#m
e|--------------------------------|---------9-|9-----9--9--9-|
B|---------------------------7-9-9|9--9--12---|-----9--9--9--|
G|-8------------------7-8-11------|-----------|--------------|
D|---9----9-9----9-11-------------|-----------|--------------|
A|--------------------------------|-----------|--------------|
E|--------------------------------|-----------|--------------|

   A               B
e|----------------|-----9-9--9/(11)/9--9/7--7/-----|
B|-12/10----12/14-|12------------------------------|
G|----------------|--------------------------------|
D|----------------|--------------------------------|
A|----------------|--------------------------------|
E|----------------|--------------------------------|

  E                            C#m                 A    B
e|---------------------------|------------------|-----|-2-3-----4-----|
B|-12/14--14--14/12--12--12--|-12/9--9--9--9--7-|--5--|-4-4----5------|
G|-11/13--13--13/11--11--11--|-11/9--9--9--9--8-|--6--|-4-4---5-------|
D|---------------------------|------------------|-----|-5-5--6--------|
A|---------------------------|------------------|-----|---------------|
E|---------------------------|------------------|-----|---------------|

Dudas, comentarios, sugerencias o peticiones,
 solo mandenme un correo a: ivaelriche@
Suggest correction
Give kudos to tab author, rate the tab!
1 2 3 4 5
comments
print report bad tab
guest
You may want to rate the tab now too:
select rating
Wanna post a correction for this tab? Suggest correction