Oops, an error
Loading. Please wait.

Te Lloré Un Río Bass Tab

version 2
version 2

Whole song

Interactive

38 views 1 this week
no commentswrite comment
1 2 3 4 5
3 more votes to show rating
add to favorites
launch autoscroll
font size
0
reset
guitar tuner
Autoscroll
slow
fast
+/-
esc
set tempo
stop
Help us to improve Ultimate-Guitar.com Take our survey!
×
ESTA ES UNA ROLA MUY COMPLICADA, ESPECIALMENTE
PORQUE EL RITMO DEL BAJO ES MUY PAUSADO, 
PERO SI ESCUCHAN LA ROLA EN EL CD MUY PRONTO
LE ENCONTRARAN EL RITMO. SUERTE!

INTRO

G-------------------------
D-------------------------
A----4-0-2----4-0-2-------
E--0--------0--------0----

1ER ESTROFA
Yo aqui llorandote un rio...
Ya no me busques...

G----------------------------------------
D--------6------6------------------------
A--7-7-7----7-7---7--------6------6-9----
E--------------------7-7-7----7-7--------

G--------------------------------------------
D--------------------------------------------
A--------11-11------11----------6------6-9---
E--9-9-9--------9-9----9--7-7-7----7-7-------

Fuiste matando...
Que te perdono...

G----------------------------------------
D--------6------6------------------------
A--7-7-7----7-7---7--------6------6-9----
E--------------------7-7-7----7-7--------

                            Estaba desauceado...
                            Yo en el suelo...
G-------------------------------------------
D-------------------------------------------
A--------11-11------11----------4------4----
E--9-9-9--------9-9----9--5-5-5----5-5---5--

G-------------------------------------------
D-------------------------------------------
A--------6------6----------11-11------11----
E--7-7-7----7-7---7--9-9-9--------9-9----9--

G--------------------
D--------------------
A--------6-----------
E--7-7-7----7-6-5----

Pero este mundo ya giro...

G----------------------------------------
D----------------------------------------
A--------4------4----------6------6------
E--5-5-5----5-5---5--7-7-7----7-7---7----

G-------------------------------------------
D-------------------------------------------
A--------11-11------11----------6------6-9--
E--9-9-9--------9-9----9--7-7-7----7-7------

CORO
Te llore todo un rio...

G----------------------------------
D---------------------------------- x4
A--7-7----------4-4-7------6-6--9--
E------9-9--5-5--------7-7---------

SE REPITE TODO DESDE EL PRIMER VERSO
EN EL SOLO SE TOCAN LAS MISMAS NOTAS DEL CORO

PUENTE
Delante de un rio te llore...

G----------------------------
D----6-9-6-9-----------------
A--7------------9-11-9-11----
E-------------9--------------

G----------------------------
D----------------------------
A----4-7-4-7----6-9-6-9------
E--5----------7--------------

HASTA EL FINAL
Suggest correction
Give kudos to tab author, rate the tab!
1 2 3 4 5
comments
print report bad tab
guest
You may want to rate the tab now too:
select rating
Wanna post a correction for this tab? Suggest correction