Oops, an error
Loading. Please wait.

Te Solté Las Riendas Bass

version 2
version 2

Whole song

19 views 1 this week
no commentswrite comment
1 2 3 4 5
3 more votes to show rating
add to favorites
launch autoscroll
font size
0
reset
guitar tuner
×
Best way to learn
"Te Solté Las Riendas"
Autoscroll
slow
fast
+/-
esc
set tempo
stop
Se me acabó la fuerza... de mi mano izquierda...
voy a dejarte el mundo... para ti solita...
como el caballo blanco... te solté la rienda...
por eso a ti te suelto... y te me vas ahorita...


G|---------|----------|----------|----------|----------|
D|---------|----------|----------|----------|----------|
A|-----4-5-|-5--5-----|-5--5-----|-5--5-----|-5--5-5-6-|
E|-5-7-----|------5-5-|------5-5-|------5-5-|----------|

Y cuando al fin comprendas... que el amor bonito... lo tenías                  conmigo...

G|----------|----------|----------|----------|
D|----------|----------|----------|----------|
A|-7--7-----|-7--7-----|-7--7-----|-7--7-7-6-|
E|------7-7-|------7-7-|------7-7-|----------|

Vas a extrañar mis besos... en los propios brazos del que esté contigo...


G|----------|----------|--------|--------------|----------|
D|----------|----------|--------|--------------|------4-4-|
A|-5--5-----|----------|------7-|----------4-4-|-2--2-----|
E|------5-5-|-0--0-7-7-|-5--5---|-0-1-2--2-----|----------|

Vas a sentir...                    tu llanto...  y has de querer...

G|----------|-------------|--------|------|-------------|
D|----------|-------------|--------|------|-------------|
A|----------|-------------|---2--2-|------|------7-7----|
E|-0--0-7-7-|-5---0-1-2---|-2------|-0--0-|-5--5-----5--|

             quisiste tanto... quisiste tanto... que quisiste tanto...

Durante el solo de guitarra:

G|----------|----------|----------|----------|----------|
D|----------|----------|----------|----------|----------|
A|------7-7-|------7-7-|----------|----------|------9-9-|
E|-5--5-----|-5--5-----|-0--0-7-7-|-0--0-7-7-|-7--7-----|

G|----------|-------------|
D|----------|-------------|
A|----------|------7-7----|
E|-0--0-7-7-|-5--5-----5--|


Verso 2


G|----------|----------|----------|----------|
D|----------|----------|----------|----------|
A|------7-7-|------7-7-|------7-7-|------7-7-|
E|-5--5-----|-5--5-----|-5--5-----|-5--5-----|

Cuando se...       meta...        y se abandona...                           

G|----------|----------|----------|----------|
D|----------|----------|----------|----------|
A|----------|----------|----------|----------|
E|-0--0-7-7-|-0--0-7-7-|-0--0-7-7-|-0--0-7-7-|

  tenido...        como tu traes...


G|----------|----------|----------|------------|
D|----------|----------|----------|------------|
A|----------|----------|------7-7-|--------4-5-|
E|-0--0-7-7-|-0--0-7-7-|-5--5-----|-5--5-7-----|

                    te me vas ahorita...  


G|----------|----------|----------|----------|
D|----------|----------|----------|----------|
A|-5--5-----|-5--5-----|-5--5-----|-5--5-5-6-|
E|------5-5-|------5-5-|------5-5-|----------|

Y cuando al fin comprendas que el amor bonito... lo tenías conmigo...


G|----------|----------|----------|----------|
D|----------|----------|----------|----------|
A|-7--7-----|-7--7-----|-7--7-----|-7--7-7-6-|
E|------7-7-|------7-7-|------7-7-|----------|

Vas a extrañar mis besos... en los propios brazos del que esté contigo...


G|----------|----------|--------|--------------|----------|
D|----------|----------|--------|--------------|------4-4-|
A|-5--5-----|----------|------7-|----------4-4-|-2--2-----|
E|------5-5-|-0--0-7-7-|-5--5---|-0-1-2--2-----|----------|

Vas a sentir...               llanto...           y has de querer...

G|----------|-------------|--------|------|-------------|
D|----------|-------------|--------|------|-------------|
A|----------|-------------|---2--2-|------|------7-7----|
E|-0--0-7-7-|-5---0-1-2---|-2------|-0--0-|-5--5-----5--|

            quisiste tanto...               tanto...

Final


Se me acabó la fuerza... y te solté la rienda...


G|----------|----------|----------|-------|
D|----------|----------|----------|-------|
A|------7-7-|------7-7-|------7-7-|-------|
E|-5--5-----|-5--5-----|-5--5-----|--5----|


                                   FIN

Cualquier duda o sugerencia a mi correo


Saludos a los miembros de la banda: Gustavo y Oscar (guitarras),
 Fernando y Johnny (teclado y batería), Lucho y Miguel(voces)
Suggest correction
Give kudos to tab author, rate the tab!
1 2 3 4 5
comments
print report bad tab
guest
You may want to rate the tab now too:
select rating
Wanna post a correction for this tab? Suggest correction