Oops, an error
Loading. Please wait.

Tonto Bajo La Lluvia Bass Tab

25 views 3 this week
no commentswrite comment
1 2 3 4 5
3 more votes to show rating
add to favorites
launch autoscroll
font size
0
reset
guitar tuner
Autoscroll
slow
fast
+/-
esc
set tempo
stop
Help us to improve Ultimate-Guitar.com Take our survey!
×
la cancion esta en la armonia de C , esta rola la sake con
una acustica asi k aguas con los sonidos graves y agudos
es muy comun k se le agan adornos a esta cancion por estar
en la escala mas conocida y comun, si tienes alguna duda o
kieres alguna opinion puedes escribirme a slash_skeleton@

intro:

G||------------------------------------------------------|
D||-----2--5---------------------------------------------|
A||--3-----------0--3-------5--------------5-------------|
E||-----------1----------7-----8--7?5---7-----8--7--5----|


!Oh, Nena!   ...Hay una luz en tus ojos naciendo...

G||------------------------------------------------------|
D||--------2--3--7--5--------------2--3--7--5------------|
A||--3--5--------------------3--5------------------------|
E||--------------------3/--------------------------------|

aki cambia el ritmo:
  las peliculas son solo historias....

G||------------------------------------------------------|
D||------------------------------------------------------|
A||--3--3--3---------------------3-----------------------|
E||-----------1--1--1--3---3--5-----5--------------------|

hecho una calamidaaaaaddd!!! .... aki vuelve el ritmo anterior

G||------------------------------------------------------|
D||--------2--3--7--5--------------2--3--7--5------------|
A||--3--5--------------------3--5------------------------|
E||--------------------3/--------------------------------|

esta parte es la mas rapida y con ritmo latino, se hace una
pausa antes de entrar a ella, trata de tocarla mas rapido

...huuuuuu!!!
G||------------------------------------------------------|
D||------------------------------------------------------|
A||--3--3--3---------------------------------------------|
E||-----------1--1--1--3--3--3--1--1--1-?----------------|


tengo que volaaar!!!!...aki cambia al ritmo base y viene el solo

G||------------------------------------------------------|
D||--------2--3--7--5--------------2--3--7--5------------|
A||--3--5--------------------3--5------------------------|
E||--------------------3/--------------------------------|

amooorr   ooor!!!...eres la luz de mi amor...
aki viene el final, esto se toca 4 veces y despues lo de mas
abajo:

G||------------------------------------------------------|
D||------------------------------------------------------|
A||--3--3--3---------------------------------------------|
E||-----------1--1--3------3--3--1?3---------------------|


G||------------------------------------------------------|
D||---------------7--10----------------------------------|
A||-----7--10--8---------10-8-7------7-------------------|
E||--8--------------------------10-8---10-8-7-5----------|

al final se oye el mariachi....ijaaa!!! XD un saludo para mazatlan
Suggest correction
Give kudos to tab author, rate the tab!
1 2 3 4 5
comments
print report bad tab
guest
You may want to rate the tab now too:
select rating
Wanna post a correction for this tab? Suggest correction