Oops, an error
Loading. Please wait.

Tu Me Salvaste Bass Tab

93 views 1 this week
no commentswrite comment
1 2 3 4 5
3 more votes to show rating
add to favorites
launch autoscroll
font size
0
reset
guitar tuner
Autoscroll
slow
fast
+/-
esc
set tempo
stop
Help us to improve Ultimate-Guitar.com Take our survey!
×
INTRO:
   G---------------------------------
   D-------------5------------4-5----
   A-2-3-5---2-0----2-3-5---3--------
   E---------------------------------


       VERSO (ES IGUAL AL SEGUNDO VERSO)
   G-------------------------------------
   D---5----------------5----------4-5---
   A-5---3-5----2-3---5---3-5----2-------
   E-------------------------------------

         CORO
   G------------------------------------
   D-------5------------5-----------5---
   A-0-2-0---5-0----2-0-----5-5-0-2-----
   E------------------------------------

   -------------------------
   -------5-------------5---
   -0-2-0---5-0-----2-0-----
   -------------------------


   DESPUES DE REPETIR EL CORO VIENE ESTO:

   G-----------
   D-5-4---4---
   A-----7-----
   E-----------

    INTERLUDIO

   G---------------------------------------------------
   D----5-4-----------5-4---4----5-4-----------5-4-----
   A-----------7-5--------7-------------7-5--------0---
   E---------------------------------------------------


    SOLO
   G-------------------------
   D---5-------------4-5-----
   A-5---3---5-0-2-------0---
   G-------------------------

    CORO X2


    FINAL:

   G----------------
   D------------5---  X2
   A-2-3-5--2-0-----
   G----------------
Suggest correction
Give kudos to tab author, rate the tab!
1 2 3 4 5
comments
print report bad tab
guest
You may want to rate the tab now too:
select rating
Wanna post a correction for this tab? Suggest correction