Oops, an error
Loading. Please wait.

Tu Tienes Lo Que Quiero Tab

version 2
version 2
by Maná
37 views 1 this week
no commentswrite comment
1 2 3 4 5
3 more votes to show rating
add to favorites
launch autoscroll
font size
0
reset
how to read this tab
guitar tuner
×
Best way to learn
"Tu Tienes Lo Que Quiero"
Autoscroll
slow
fast
+/-
esc
set tempo
stop
HOLA QUETAL? LES VOY ADEJAR "tu tienes lo que quiero" ESPERO
QUE LES GUSTE:
==============================COMIENZO=========================
INTRO:
1.----------------------------------|
2.----------------------------------|
3.---4-5-----0-2----2---5-5-4-4-4-2-|
4.-2-------------0----0-------------|
5.-------3-3------------------------|
6.----------------------------------|
                                        X4
1.----------------------------------|
2.----------------------------------|
3.---4-5-----0-2----2-------4-5-4-2-|
4.-2-------------0----0-2-2---------|
5.-------3-3------------------------|
6.----------------------------------|

 VERSOS:(TAMBIEN SE HACE EL INTRO)
       Em      C        D
ay! mujer que buena tu te vez
 D               Em     C       D
tu forma me alucina
     Em    C             D                  Em      C  D
y yo se que sabes como estas lo enseñas sin medida, niña
Em      C         D   Em      C            D
a ti te gusta vacilar, lo que tu quieres es gozar
        Em    C       D                  Em  C       D
y la noche te invita a rumbear mojada de calor de calor

PRECORO:
( DE FONDA GUITARRA HACE UNOS ARPEGIOS QUE SON FASILES DE SACAR
DE OIDO NO LOS PONGO POR QUE CREO QUE LOS PUEDEN SACAR
ESCUCHANDO LA CANCIÓN)

C              Em      D C
con pinta de una diva
C                   Em      D   C
gozando hasta que salga el sol
               Em   D
como quiero tenerte
      C              D
me haz robado el corazon

CORO:
Em   C               D
tu tienes lo que quiero
Em    C             D
me prendes como el fuego
Em      C            D
tu tienes lo que quiero
Em    C                D
me prendes como el fuego.


Em                C       D
ven pa'ca y muevelmelo aqui
               Em    C      D
mamita estas ardiendo
Em          C             D
recorrer tu cuerpo y explorar
               Em     C     D
besarte sin aliento, corazon


PRECORO:
C              Em      D C
con pinta de una diva
C                   Em      D   C
gozando hasta que salga el sol
               Em   D
como quiero tenerte
      C              D
me haz robado el corazon


CORO:
Em   C               D
tu tienes lo que quiero
Em    C             D
me prendes como el fuego
Em      C            D
tu tienes lo que quiero
Em    C                D
me prendes como el fuego.

SOLO
1.-------10-12-------10----------10---------------------------|
2.-12-13----------12----12-10-10----10-12-13-12-12-10-12-10.--|
3.-------------12---------------------------------------------|
4.------------------------------------------------------------|
5.------------------------------------------------------------|
6.------------------------------------------------------------|

1.----------------10-----12-10--10-12.----------------------10------------|
2.---------------------12-----10--------------10-12-13-12-10--13-12-10-12.|
3.-12-12-11-11-9-9---12----------------9-11-12----------------------------|
4.------------------------------------------------------------------------|
5.------------------------------------------------------------------------|
6.------------------------------------------------------------------------|

1.----------------------------------------------------------------|
2.----------------------------------------------------------------|
3.---------9.---------9.---------9--12-12-11-11-9-9---------------|
4.-9-10-12----9-10-12----9-10-12--------------------12-12-9-10..--|
5.----------------------------------------------------------------|
6.----------------------------------------------------------------|

C                 D                     Em
quiero probar tu amor quiero comerte a besos
C             D                 Em
tu eres para mi un sueño tan perfecto
C            D                    Bm
contigo pachangear rumbeando sin parar
               Em   D    C
te quiero para mi  oh..yeah
Bm        C           Em
gozando hasta el amanecer.

1.----------------------------------|
2.----------------------------------|
3.---4-5-----0-2----2---5-5-4-4-4-2-|
4.-2-------------0----0-------------|
5.-------3-3------------------------|
6.----------------------------------|
                                        X4
1.----------------------------------|
2.----------------------------------|
3.---4-5-----0-2----2-------4-5-4-2-|
4.-2-------------0----0-2-2---------|
5.-------3-3------------------------|
6.----------------------------------|

CORO:
Em   C               D
tu tienes lo que quiero
Em    C             D
me prendes como el fuego
Em      C            D
tu tienes lo que quiero
Em    C                D
me prendes como el fuego.


Em   C               D
tu tienes lo que quiero
Em    C             D
me prendes como el fuego

(DESPUES DE CADA FRASE SIGUIENTE SE TOCA  ESTO)
1.--------------------------------------------|
2.-----8-8---8-8---8-8--11-11-11-11-11---7----|
3.-7-9-----9-----9-------------------------9--|
4.--------------------------------------------|
5.--------------------------------------------|
6.--------------------------------------------|

1.-11/12-12-12-12..- 11/12-12-12-12.----------------|
2.-----------------------------------12-12-12-12----|
3.--------------------------------------------------|
4.--------------------------------------------------|
5.--------------------------------------------------|
6.--------------------------------------------------|

1.-----------------------------------------------------------|
2.-----8----10-8-------8-10-8-------8---8-8--11-11-11---9----|
3.-7-9---9-------7-7-9----------7-9---9-------------------9--|
4.-----------------------------------------------------------|
5.-----------------------------------------------------------|
6.-----------------------------------------------------------|

Em           C
acercate un poco para aca
 D
dame tu amor damelo ya
acercate un poco para aca
dame tu amor damelo ya.
==============================FIN==============================
BUENO AMIGOS AHI ESTA TODO LO QUE LES DEJO OK "practiquen"
CHAU.

LEANDRO_TRANSCRIPCIONES@  21/01/06 18:40hs
CAHU!!!!!!
Suggest correction
Give kudos to tab author, rate the tab!
1 2 3 4 5
comments
print report bad tab
guest
You may want to rate the tab now too:
select rating
Wanna post a correction for this tab? Suggest correction