Oops, an error
Loading. Please wait.

Tu Tienes Lo Que Quiero Bass

by Maná
86 views 1 this week
no commentswrite comment
1 2 3 4 5
3 more votes to show rating
add to favorites
launch autoscroll
font size
0
reset
guitar tuner
×
Best way to learn
"Tu Tienes Lo Que Quiero"
Autoscroll
slow
fast
+/-
esc
set tempo
stop
Aqui les tengo el tab correcto de esta cancion.
Escuchenla para que vean el ritmo y
la vallan agarrando.  Espero que les guste.
Va dedicada a una chica muy especial.


Intro: (entra primero guitarra, luego entra bajo con el slide)


G-----------------------------------------------
D-----------5-------7----55-4-----5-------7-----
A-13/7--7-7----3-5------------7-7----3-5----555-
E---------------------7-------------------------


Despues del intro se toca esto, casi igual.


G-----------------------
D-----5-------7----55-4-    (8X)
A-7-7----3-5------------
E---------------7-------


Con pinta de una diva...


G-----------------------
D------------9-----7----    (3X)
A-3-3-3----7---7-5---5--
E-----------------------


Me has robado el corazon...


G-----------------------
D---5---55-----7--------
A-3---3---3--5---5-5-6--
E-----------------------


Tu Tienes lo que quiero...
(Se los separo para que no se vea tan confuso. Se toca lo mismo tres veces
y a la cuarta se termina con el 555)


G--------------------
D---9---5---7---55-4-
A-7---3---5----------
E-------------7------

G--------------------
D---9---5---7---55-4-
A-7---3---5----------
E-------------7------

G--------------------
D---9---5---7---55-4-
A-7---3---5----------
E-------------7------

G--------------------
D---9---5---7--------
A-7---3---5---555----
E--------------------


Ven paca, y muevemelo aqui...
(lo mismo que despues del intro)


G-----------------------
D-----5-------7----55-4-    (4X)
A-7-7----3-5------------
E---------------7-------


Con pinta de una diva...


G-----------------------
D------------9-----7----    (3X)
A-3-3-3----7---7-5---5--
E-----------------------


Me has robado el corazon...


G-----------------------
D---5---55-----7--------
A-3---3---3--5---5-5-6--
E-----------------------


Tu Tienes lo que quiero...


G--------------------
D---9---5---7---55-4-    (8X)
A-7---3---5----------
E-------------7------


Quiero provar tu amor...
(De aqui en adelante se pone un poco mas dificil, asi que pongan
la cancion para que sepan donde va cada nota)


G----------------------------------------------------
D--------55----------77------55------------55--------    (2X)
A-3-7-3-----3-5-9-5-----5-77----777--5--77----777--5-
E----------------------------------------------------


Con Tigo Pachangear...
(esto se mira un poco confuso si no escuchan la musica, pero
cuando la escuchen sabran donde jalarle al bajo. Termina con
el slide)


G--------------------------------------------------------------------------
D--------55---------------4----44-----9-----7-----5----5-------------------
A-3-7-3-----3-5-9-5-5-3-2---2-----2-7---7-5---7-3---3----3-2-2-2-3-5--7/1--
E--------------------------------------------------------------------------


Despues de el solo de guitarra, se toca esto.
(Esto es lo unico que no estoy seguro si si
es lo que se toca, asi que si ustedes tocan
algo que suene mejor, me lo mandan porfa)


G----------------
D-9-9-7-55-----4-
A-----------22---
E----------------


Tu Tienes lo que quiero...


G--------------------
D---9---5---7---55-4-    (4X)
A-7---3---5----------
E-------------7------


Hacercate un poca para aca, dame tu amor, damelo ya...


G-----------------------
D-----5---------7--55-4-    (asi se va hasta que se acabe la rola)
A-7-7----3-5--5---------
E-----------------------


Tambien se puede acabar asi


G-----------------------
D-----5---------7--5-4--
A-7-7----3-5--5---------
E-----------------------


Bueno, ahi esta mi primer tab. Espero que este correcto
pero sobre todo que les ayude y les guste.
Suggest correction
Give kudos to tab author, rate the tab!
1 2 3 4 5
comments
print report bad tab
guest
You may want to rate the tab now too:
select rating
Wanna post a correction for this tab? Suggest correction