Oops, an error
Loading. Please wait.

Tu Tienes Lo Que Quiero Tab

version 6
version 6
by Maná
64 views 1 this week
no commentswrite comment
1 2 3 4 5
3 more votes to show rating
add to favorites
launch autoscroll
font size
0
reset
how to read this tab
guitar tuner
×
Best way to learn
"Tu Tienes Lo Que Quiero"
Autoscroll
slow
fast
+/-
esc
set tempo
stop
solo Tu Tienes lo que Quiero-MANÁ
Espero q les guste y ayude!
Es mi primera tab!

h=hammer

6-------------------------------
5-------------------------------
4-9-10--------9---10---7-7------
3------7-9------7----9-----7----
2----------8--------------------
1-------------------------------

6------------------------------
5------------------------------
4----10-9-9/9-------------------
3--7-----------------------9-9--
2-0-------------10-8-8-7-7-----
1-------------7----------------

6---------------------
5-------------------
4-----7-10-9-9-------
3-7------------8h9---
2---7----------------
1--------------------


6-------------------------------------
5-----------------------------------
4----------------------------------
3-9--------------------------------
2---7-8-10-------10--------10----
1----------7-8-7----10-8-7----7----

6------------------------------------------------
5------------------------------------------------
4-9-10-----9-10-----9-10---------------------9-10
3------7-9------7-9------7-9---------9-9-7-7-----
2----------------------------8-8-7-7-------------
1------------------------------------------------
Suggest correction
Give kudos to tab author, rate the tab!
1 2 3 4 5
comments
print report bad tab
guest
You may want to rate the tab now too:
select rating
Wanna post a correction for this tab? Suggest correction