Oops, an error
Loading. Please wait.

Un Lobo Por Tu Amor Bass Tab

50 views 1 this week
no commentswrite comment
1 2 3 4 5
3 more votes to show rating
add to favorites
launch autoscroll
font size
0
reset
guitar tuner
Autoscroll
slow
fast
+/-
esc
set tempo
stop
Help us to improve Ultimate-Guitar.com Take our survey!
×
esta es la base de todita la cancion! asi se va toda
Parte A

G-----------------------------------------------
D-----------------------------------------------
A----------5--5-5--5-7---------5--5-5---------
E----0--------------------0-----------5---------

siempre antes de que empiece el coro dice

donde te voy a atrapar
ahi, antes de empezar con el coro, hay un slide, que creo que va asi

G---------------------
D--------------------
A--------------------
E----3s9--5s15------
despues empieza el coro y se toca lo de siempre, parte A

y al finalito del coro se dice esto y se toca esto

"un lobo por tu amor, o no y not e vas a escapar"
mientras dicen eso uno toca esto

G----------------------------------
D-----------------------------------
A------------------------------------
E------0-0-0-0-0-0-0-0--3-3-3-3-3-3-3

despues se sigue igual

hay una parte que cambia

ahi se toca lo mismo hasta cierto punto, ahi se toca asi

G-----------------------------------------------
D-------------------------------5-7-5---------
A----------5--5-5--5-7------5-7------------
E----0-------------------0-------------------

en el solo se toca igual que al principio, pero asi

G-------------------------
D--------------------------   aqui se pasan a la parte A
A-------------------------    despues de todos esos ceros
E---0-0-0-0-0-0-0-0-0-0-0-0

no estoy seguro si son tantos ceros los que hay que tocar, 
pero son un monton

despues de esto la cancion sigue igual hasta el final, 
sigue igual que la parte A con todos los ceros!
Suggest correction
Give kudos to tab author, rate the tab!
1 2 3 4 5
comments
print report bad tab
guest
You may want to rate the tab now too:
select rating
Wanna post a correction for this tab? Suggest correction