Oops, an error
Loading. Please wait.

Un Lobo Por Tu Amor Tab

version 1
version 1

Whole song

by Maná
41 views 3 this week
no commentswrite comment
1 2 3 4 5
3 more votes to show rating
add to favorites
launch autoscroll
font size
0
reset
how to read this tab
guitar tuner
×
Best way to learn
"Un Lobo Por Tu Amor"
Autoscroll
slow
fast
+/-
esc
set tempo
stop
colaboración de Francisco Javier Castillo Soriano
paco_soriano@

intro: Esus4 E Asus4

esta es la intro y los tonos del verso
aquí es un rasgueo hacia abajo 'v' y otro hacia arriba'^'

        v ^     v ^   
e|--x---x-x--x--x-x--x----
B|--x---x-x--x--5-5--x----NOTA:
G|--x---2-1--x--7-7--x----Cuando estés sacando esta rola ve 
D|--x---2-2--x--7-7--x----escuchándola para que la comprendas mejor
A|--x---2-2--x--7-7--x----
E|--x---0-0--x--5-5--x----

riff1 
    v ^       v ^       v ^       v   ^
e|--9-9-x-x-x-7-7-x-x-x-9-9-x-x-x-7-x-7-----
B|--9-9-x-x-x-7-7-x-x-x-9-9-x-x-x-7-x-7-----
G|--9-9-x-x-x-7-7-x-x-x-9-9-x-x-x-7-x-7-----
D|------x-x-x-7-7-x-x-------x-x-x-7-x-7-----
A|------------------------------------------
E|------------------------------------------

riff2
    v  ^  v  ^  v  ^
|--10-10-10-10-10-12-----
|--10-10-10-10-10-10-----
|------------------------
|------------------------
|------------------------
|------------------------

riff3
en este riff tocas así como viene nada mas el 10^  de B lo vas 
empujando hacia arriba en cada golpe y al ultimo golpe rápido lo bajas
     v   ^   v   ^   v
e|--10--10--10--10--10-
B|--10^-10^-10^-10^-10-
G|---------------------
D|---------------------
A|---------------------
E|---------------------
 
riff del coro 
        v  ^      v    ^                               v   ^    v
e|------0--0------------------ |-0---0--0--2--2--2-----------------------
B|---x--3--3------------------ |-1---1--1--3--3--3--x--------------------
G|---x--2--2--x-x-7-x-7h9----- |-0---0--0--2--2--2--x--7-x-7-x-7h9-------
D|---x--2--2--x-x-7-x-7-7----- |-2---2--2--0--0--0--x--7-x-7-x-7-7-------
A|---------------------------- |-3---3--3--------------------------------
E|---------------------------- |-----------------------------------------


riff4

     v     ^ ^ v ^     ^ ^ v ^    ^ ^ v ^     ^ ^ v ^     v ^ v ^ v
e|---5--x--4-4-5-5--x--4-4-5-5-x--4-4-5-5--x--4-4-5-5--x--2-2-2-2-2-------
B|---5--x--5-5-5-5--x--5-5-5-5-x--5-5-5-5--x--5-5-5-5--x--3-3-3-3-3-------
G|---4--x--4-4-4-4--x--4-4-4-4-x--4-4-4-4--x--4-4-4-4--x--2-2-2-2-2-------
D|------------------------------------------------------------------------
A|------------------------------------------------------------------------
E|------------------------------------------------------------------------


solo
e|-----------------------------------------12-----10-----7----------------
B|-----8------8h10-10b*p8-----8h10-----15b----10b----10b---10b+p8----8b---
G|--/9---9~~x---------------9--------9---------------------------(9)------
D|------------------------------------------------------------------------
A|------------------------------------------------------------------------
E|------------------------------------------------------------------------

e|--------------------------------------------------------13b--/-0--------
B|--8/10--8/10--10p8------------------------------------------------------
G|--------------------7/9b'---------------------------9-------------------
D|---------------------------5/7b'--------------5h7/9---------------------
A|---------------------------------5/7b'--7p5h7---------------------------
E|------------------------------------------------------------------------

riff5                       riff6
e|----------0---------| e|--------9----------|
B|--------5-----------| B|------9---9--------|
G|------7-----7-------| G|----7-------7------|
D|----6---------------| D|--6----------------|
A|--7-----------------| A|-------------------|
E|--------------------| E|-------------------|

intro

 E Esus4    Asus4.....
sábado en la noche              
                               riff1
te he buscado en casi todos lados

sábado en la noche he rolado
              riff1
en esta ciudad
                               riff2
la noche tiene una luna tatuada
                             riff3
mi mente se siente trastocada

sea donde estés, sea adonde te voy atrapar

CORO:
                  E riff del coro
un lobo por tu amor
    Asus4       E
nena por tu amor
      Asus4  E      Asus4     E
soy tu depredador, tu depredador
     Asus4       C      D
un lobo por tu amor oh no!

y no te vas a escapar


intro
E Esus4        Asus4.........
te busco entre la adrenalina
                        riff1
y la locura de este antro
                                     
te busco y alucino tanta zorra que hay 
           riff1
aquí adentro
                                   riff2
la luna esta afectando mis sentidos
                                riff3
y yo como un lobo dando aullidos

sea donde estés, sea adonde te voy atrapar

CORO:
                   E riff del coro
un lobo por tu amor
    Asus4       E
nena por tu amor
      Asus4  E      Asus4     E
soy tu depredador, tu depredador
     Asus4       C      D
un lobo por tu amor oh no!

y no te vas a escapar

intro   
riff4

SOLO

Quiero besarte amor
                  riff5
quiero morderte amor

quiero volcarme en ti
                  riff6
y derramar mi amor
     E Esus4     Asus4......
un lobo, por tu amor soy

un lobo, soy yo

un lobo, soy yo

un lobo, amor

CORO:
un lobo por tu amor
nena por tu amor
soy tu depredador, tu depredador
un lobo en soledad, un lobo sin su amor

nena sin su amor
un lobo por tu amor
nena por tu amor
un lobo por tu amor
y no te vas a escapar,¡oh yeah!

intro
riff4
         E 
soy un lobo 
                       Riff4
un lobo detrás de tu amor
         E             Riff4
soy un lobo ............

/=slide
h=hammer on
p=pull off
b=bend subes
b* pre-bend and release aquí haces el bend y luego
 ahí la vuelves a tocar y la bajas a la nota original
b+ bend and release aquí haces el bend y lo 
regresas a la nota original 
(9)significa que presiones la nota pero sin
tocar la con la mano derecha
b'subes y bajas la cuerda sin tocarla

Tonos 
Esus4 0222XX 
Asus4 57775X o X02230

Cualquier duda que tengan o aclaración que tengan manden un mail
Suggest correction
Give kudos to tab author, rate the tab!
1 2 3 4 5
comments
print report bad tab
guest
You may want to rate the tab now too:
select rating
Wanna post a correction for this tab? Suggest correction