Oops, an error
Loading. Please wait.

Un Lobo Por Tu Amor Tab

version 3
version 3

Whole song

77 views 3 this week
no commentswrite comment
1 2 3 4 5
3 more votes to show rating
add to favorites
launch autoscroll
font size
0
reset
how to read this tab
guitar tuner
Autoscroll
slow
fast
+/-
esc
set tempo
stop
HOLA COMO ESTAN? LLEGUE CON UN TAB QUE SEGURO LES VA A GUSTAR
AHI LES VA:
===========================COMIENZO============================
INTRO:E/Eb A (VARIAS VECES)
 (EL INTRO ES CON UN RASGUEO HACIA ABAJO Y OTRO HACIA ARRIBA)


VERSOS:
(EL VERSO SE HACE CON ESOS DOS ACORDES SOLAMENTE)

 E/Eb    Asus4
sábado en la noche
te he buscado en casi todos lados
1.-9-9--x-x-7-7-x-x--9-9--x-x-7-x-7-----|
2.-9-9--x-x-7-7-x-x--9-9--x-x-7-x-7-----|
3.-9-9--x-x-7-7-x-x--9-9--x-x-7-x-7-----|
4.------x-x-7-7-x-x-------x-x-x-7-7-----|
5.--------------------------------------|
6.--------------------------------------|

sábado en la noche he rolado
en esta ciudad
1.-9-9--x-x-7-7-x-x--9-9--x-x-7-x-7-----|
2.-9-9--x-x-7-7-x-x--9-9--x-x-7-x-7-----|
3.-9-9--x-x-7-7-x-x--9-9--x-x-7-x-7-----|
4.------x-x-7-7-x-x-------x-x-x-7-7-----|
5.--------------------------------------|
6.--------------------------------------|

la noche tiene una luna tatuada
1.--10-10-10-10-10-12-----|
2.--10-10-10-10-10-10-----|
3.------------------------|
4.------------------------|
5.------------------------|
6.------------------------|

mi mente se siente trastocada
1.--10-10-10-10-10-|
2.--10-10-10-10-10-|
3.-----------------|
4.-----------------|
5.-----------------|
6.-----------------|
sea donde estés, sea adonde te voy atrapar.

CORO:

                  E/Eb
un lobo por tu amor
    Asus4       E/Eb
nena por tu amor
      Asus4  E/Eb      Asus4     E/Eb
soy tu depredador, tu depredador
     Asus4       C      D
un lobo por tu amor oh no!

y no te vas a escapar.


INTRO:E/Eb A
(VARIAS VECES

E/Eb         Asus4
te busco entre la adrenalina
y la locura de este antro
1.-9-9--x-x-7-7-x-x--9-9--x-x-7-x-7-----|
2.-9-9--x-x-7-7-x-x--9-9--x-x-7-x-7-----|
3.-9-9--x-x-7-7-x-x--9-9--x-x-7-x-7-----|
4.------x-x-7-7-x-x-------x-x-x-7-7-----|
5.--------------------------------------|
6.--------------------------------------|

te busco y alucino tanta zorra que hay
aquí adentro
1.-9-9--x-x-7-7-x-x--9-9--x-x-7-x-7-----|
2.-9-9--x-x-7-7-x-x--9-9--x-x-7-x-7-----|
3.-9-9--x-x-7-7-x-x--9-9--x-x-7-x-7-----|
4.------x-x-7-7-x-x-------x-x-x-7-7-----|
5.--------------------------------------|
6.--------------------------------------|
la luna esta afectando mis sentidos
y yo como un lobo dando aullidos
1.--10-10-10-10-10-12-----|
2.--10-10-10-10-10-10-----|
3.------------------------|
4.------------------------|
5.------------------------|
6.------------------------|
sea donde estés, sea adonde te voy atrapar.

CORO:

                  E/Eb
un lobo por tu amor
    Asus4       E/Eb
nena por tu amor
      Asus4  E/Eb      Asus4     E/Eb
soy tu depredador, tu depredador
     Asus4       C      D
un lobo por tu amor oh no!

y no te vas a escapar.

1.-5-x4-4-5-5-x-4-4-5-5-x--4-4-5-5--x--4-4-5-5--x--2-2-2-2-2--|
2.-5-x5-5-5-5-x-5-5-5-5-x--5-5-5-5--x--5-5-5-5--x--3-3-3-3-3--|
3.-4-x4-4-4-4-x-4-4-4-4-x--4-4-4-4--x--4-4-4-4--x--2-2-2-2-2--|
4.------------------------------------------------------------|
5.------------------------------------------------------------|
6.------------------------------------------------------------|

SOLO:
1.----------------------------------------12----10-----7----------|
2.----8-----8-10-10bp8-----8-10-----15b---10b---10b---10b-p8----8-|
3.-/9---9~~-------------9--------9---------------------------(9)--|
4.----------------------------------------------------------------|
5.----------------------------------------------------------------|
6.----------------------------------------------------------------|

1.------------------------------------------------------13/0----|
2.-8/10--8/10--10-8---------------------------------------------|
3.--------------------7/9b---------------------------9----------|
4.---------------------------5/7--------------5-7/9-------------|
5.---------------------------------5/7--7p5/7-------------------|
6.--------------------------------------------------------------|

Quiero besarte amor
1.----------0--------|
2.---------5---------|
3.------7-----7------|
4.----6--------------|
5.--7----------------|
6.-------------------|
quiero morderte amor
quiero volcarme en ti
y derramar mi amor
1.--------9----------|
2.------9---9--------|
3.----7-------7------|
4.--6----------------|
5.-------------------|
6.-------------------|
     E/Eb     Asus4
un lobo, por tu amor soy
un lobo, soy yo
un lobo, soy yo
un lobo, amor.

CORO:
                  E/Eb
un lobo por tu amor
    Asus4       E/Eb
nena por tu amor
      Asus4  E/Eb      Asus4     E/Eb
soy tu depredador, tu depredador
     Asus4       C      D
un lobo por tu amor oh no!

y no te vas a escapar.

nena sin su amor
un lobo por tu amor
nena por tu amor
un lobo por tu amor
y no te vas a escapar¡oh yeah!

1.-5-x4-4-5-5-x-4-4-5-5-x--4-4-5-5--x--4-4-5-5--x--2-2-2-2-2--|
2.-5-x5-5-5-5-x-5-5-5-5-x--5-5-5-5--x--5-5-5-5--x--3-3-3-3-3--|
3.-4-x4-4-4-4-x-4-4-4-4-x--4-4-4-4--x--4-4-4-4--x--2-2-2-2-2--|
4.------------------------------------------------------------|
5.------------------------------------------------------------|
6.------------------------------------------------------------|

         E
soy un lobo
un lobo detrás de tu amor
         E
soy un lobo .
============================FIN=================================
BUENO AMIGOS YA ESTA "corregida OK practiquen" CHAÚ.

 LEANDRO_TRANSCRIPCIONES@  21/01/06  16:11hs
CHAU!!!!!!!!!!!
Suggest correction
Give kudos to tab author, rate the tab!
1 2 3 4 5
comments
print report bad tab
guest
You may want to rate the tab now too:
select rating
Wanna post a correction for this tab? Suggest correction