Oops, an error
Loading. Please wait.

Vivir Sin Aire Bass

version 2
version 2

Whole song

Interactive

by Maná
68 views 1 this week
no commentswrite comment
1 2 3 4 5
3 more votes to show rating
add to favorites
×
Save as Personal and add changes to this tab that will be seen only by you. Learn more ›
×
You can save this tab as Personal to edit and correct it or add notes. All changes will be seen only by you. Learn more »
save as personal
new!
launch autoscroll
font size
0
reset
guitar tuner
Autoscroll
slow
fast
+/-
esc
set tempo
stop
Versos e introducción
 G              Bm       C              D
G-----------7-7------------7-7-7-7----------------------|
D------------------9-7h9---------10-9-7-----------------|
A--10-10-10-----10----------------------9-7-7h9---------|
E-------------------------------------------------------|
     Como   quisiera                  poder...


Versos e introducción
 G              Bm       C              D
G-----------7-7------------7-7-7-7----------------------|
D------------------9-7h9---------10-9-7-----------------|
A--10-10-10-----10----------------------9-7-7h9---------|
E-------------------------------------------------------|
      Como   quisiera                 poder...

Pre coros
   C        D       Em    C
G------------------------------------|
D---------------------------5--2-----|
A--3--------5-----5-7-----3-------3--|
E-------3-------7------7-------------|
    Pero no puedo    siento que muero

   G           Bm            D
G-------------------------------------------------|
D-------------------------------------------------|
A--------------2-----2-------5---5-5--5---5-5---5-|
E--3--------3------------------------5--------7---|
   Me estoy ahogando sin tu amor

Coros
  Em               C            G          Bm7
G---------------------------------------------|
D---------------------------------------------|
A-7-------------------------------------------|
E--------------7---8--------8---3-------3--2--|
  Como quisiera poder vivir sin aire

Em                C            D
G----------------------------------------------------|
D----------------------------------------------------|
A-7-----------------------------5---5-5--5---5-5---5-|
E--------------7---8---------8----------5---------7--|
  Como quisiera calmar mi aflicción

  Em               C            G          Bm7
G---------------------------------------------|
D---------------------------------------------|
A-7-------------------------------------------|
E--------------7---8--------8---3-------3--2--|
  Como quisiera poder vivir sin agua

  Em              C          D
G-------------------------------|
D-------------------------------|
A--7-------------------------5--|
E--------------7--8-------8-----|
  Me encantaría robar tu corazón

Segunda parte
   G           Bm   C     D             G  Bm  C   D
G------------------------------------------------------|
D------------------------------------------------------|
A--------------2--2-3--3--5----------5-----2-2-3-3-5-5-|
E--3--------3---------------------------3-3------------|
     Como pudiera      un pez nadar sin agua

Coros
   G           Bm   C     D             G  Bm  C   D
G------------------------------------------------------|
D------------------------------------------------------|
A--------------2--2-3--3--5----------5-----2-2-3-3-5-5-|
E--3--------3---------------------------3-3------------|
  Como      pudiera     un ave volar sin alas

   G           Bm    C     D             G  Bm  C   D
G------------------------------------------------------|
D------------------------------------------------------|
A--------------2--2-3--3--5----------5-----2-2-3-3-5-5-|
E--3--------3---------------------------3-3------------|
  Como      pudiera     la flor crecer sin tierra

   G           Bm   C     D             G  Bm  C   D
G------------------------------------------------------|
D------------------------------------------------------|
A--------------2--2-3--3--5----------5-----2-2-3-3-5-5-|
E--3--------3---------------------------3-3------------|
  Como   quisiera      poder vivir sin  tí

Parte final
  Em              C          D
G--------------------------------|
D--2-----------------------------|
A--------------2--3-------3--5---|
E--------------------------------|
  Me encantaría robar tu corazón

Es versión de "LOS POTES" de Santiago de Compostela
Suggest correction
Give kudos to tab author, rate the tab!
1 2 3 4 5
comments
print report bad tab
guest
Wanna post a correction for this tab? Suggest correction