Oops, an error
Loading. Please wait.

Vivir Sin Aire Tab

version 6
version 6
79 views 1 this week
no commentswrite comment
1 2 3 4 5
3 more votes to show rating
add to favorites
launch autoscroll
font size
0
reset
how to read this tab
guitar tuner
Autoscroll
slow
fast
+/-
esc
set tempo
stop
Help us to improve Ultimate-Guitar.com Take our survey!
×
VIVIR SIN AIRE, VERSION ESPAÑOLA


1|------0-0-0-|--------0-|------0-2-0-0-|---------------0-----|
2|0-1-3---1-1-|1-3-1-0-1-|1-1-3-----0-0-|0-0-0-1-0-----0-0----|
3|--------2-0-|--------2-|----------0-2-|---------2---0---0---|
4|--------2-2-|--------0-|----------0-0-|------------2-----2--|
5|--------0-0-|--------0-|----------2-0-|-----------2-------2-|
6|--------0-3-|--------2-|----------3-2-|----------0---------0|


I----------0-0|----------0-----x|-------0-2-3-2-5-3-0-------0-0|
I0-0-1-3-0-1-1|1-1-3-1-0-1-1-0-x|1-1-1-3--------------3-1-0-0-0|
I----------2-0|----------2-----x|---------------------------0-2|
I----------2-2|----------0-----x|---------------------------0-0|
I----------0-0|----------0-----x|---------------------------2-0|
I----------0-3|----------2-----x|---------------------------3-2|

I------------------0------|------------0------0--------12-----|
I-0-0-0-1-0-------0-0-----|-------0-1--0-0----0----------12---|
I-----------2----0---0----|-0-0-2------2--2-0-2-0---4------12-|
I---------------2-----2---|------------0------1--4--4---------|
I--------------2-------2--|------------0------2-----2---------|
I-------------0---------0-|------------2------0-----0---------|


I-7------|-5-------|-3------|--------------------|
I-8---8--|-7---7---|-5---5--|---3-0-----0----0---|
I-9--9---|-7--7-7--|-5--5---|--2--------0---0----|
I-9-9----|-7-7-----|-5-5----|-0------------0-----|
I-7------|-5-------|-3------|--------------------|
I-7------|-5-------|-3------|-----------3-3------|

I-----------------------|------------------0-------|
I-------1--0-----3-1-0--|-0---0----------0---3-1-0-|
I-----0----0-2--------2-|-0--0---2-0---0-----------|
I---2----------0--------|---0--------0-------------|
I-0---------------------|--------------------------|
I----------3-2----------|-3------2-0---------------|

I------------------------|-------------------|
I-1-----1--0-----3-1-0---|-0---0-------3-1-0-|
I-2---2----0-2---------2-|-0--0---2-0--------|
I---2----------0---------|---0---------------|
I-0-----0----------------|-------------------|
I----------3-2-----------|-3------2-0--------|

I---------------------------|
I-1-----1--0-----3-1-0------|
I-2---2----0-2--------------|
I---2----------0------------|
I-0-----0-------------------|
I----------3-2-----------0--|


I-----------------------------------------|
I--3-3-3-3-3----3----3-3-3----------------|
I-----------------------------------------|
I--4-4-4-4-4--4--4---4-4-4------2-4-5-5---|
I--4-4-4-4-4-4--4----4-4-4-0-2-3----------|
I---------------------------------------0-|


I--------------------|------------------------|
I-3-3-3-3-3----------|------1--0------3-1-0---|
I--------------------|----0----0-2----------2-|
I-4-4-4-4-4----------|--2----------0----------|
I-4-4-4-4-4-------0--|------------------------|
I-----------0-2-3----|---------3-2------------|

I-------------0-------|---------------------|
I-0---0---------3-1-0-|-1---1--0-----3------|
I-0--0---2-0----------|-2--2---0-2----2-----|
I---0-----------------|---2--------0----0---|
I---------------------|-0-----------------0-|
I-3------2-0----------|--------3-2----------|

I-------------------0-3-2-0------------------------12----|
I--------------------------3-1-0--------------------12---|
I-------------0------------------2-0------------------12-|
I-----------4------------------------4-2-----------------|
I---------3--------------------------------2-0-----------|
I-0-2---3---------------------------------------3-2-0----|

esta es la intro ya de la cancion en si,
lo anterior es la parte que tocan en un concierto en España.

INTRO:
e|-----3----------5---2------5-------0------3---------2-------3--------|
A|-----3--------------3----3---3-----1----1---1-------3--3-5----5/3----|
G|-------0-----0------2--2-------0---0--0-------0-----2----------------|
D|----------------------------------------------------0----------------|
A|---------0/2-----------------------3---------------------------------|
E|-----3--------------2------------------------------------------------|

e|-----3--------------2------5-------0------3-----3-3--2-2--0-0---------|
A|-----3--------------3----3---3-----1----1---1---3-3--3-3--1-1--3-3----|
G|-------0------0-----2--2-------0---0--0------------------------4-4----|
D|----------------------------------------------------------------------|
A|---------0/2-----------------------3----------------------------------|
E|-----3--------------2-------------------------------------------------|

e|-----3----------5---2------5-------0------3---------2-------3---------|
A|-----3--------------3----3---3-----1----1---1-------3--3-5----5/3-----|
G|-------0-----0------2--2-------0---0--0-------0-----2-----------------|
D|----------------------------------------------------0-----------------|
A|---------0/2-----------------------3----------------------------------|
E|-----3--------------2-------------------------------------------------|

e|-----3----------5---2------5-------0------3---------2-----------------|
A|-----3--------------3----3---3-----1----1---1-------3-----------------|
G|-------0-----0------2--2-------0---0--0-------0-----2-----------------|
D|----------------------------------------------------0-----------------|
A|---------0/2-----------------------3----------------------------------|
E|-----3--------------2-------------------------------------------------|


G       Bm    C     D             G     (Bm C D)
Como Quisiera    poder vivir sin aire
G        Bm   C     D             G     (Bm C D)
como quisiera    poder vivir sin agua
G        Bm   C      D              G   (Bm C D)
Me encantaría    quererte un poco menos
G        Bm   C      D            G     (Bm C D)
como quisiera     poder vivir sin ti...


y continua toda la cancion...
Suggest correction
Give kudos to tab author, rate the tab!
1 2 3 4 5
comments
print report bad tab
guest
You may want to rate the tab now too:
select rating
Wanna post a correction for this tab? Suggest correction