Oops, an error
Loading. Please wait.

Vivir Sin Aire Bass Tab

version 3
version 3

Whole song

Interactive

54 views 1 this week
no commentswrite comment
1 2 3 4 5
3 more votes to show rating
add to favorites
launch autoscroll
font size
0
reset
guitar tuner
Autoscroll
slow
fast
+/-
esc
set tempo
stop
Help us to improve Ultimate-Guitar.com Take our survey!
×
Bueno esta es la versión completa de todos los tabs de esta 
canción, con varias correcciones y mas completa.

Intro:
G |-----------------7-7-7-7-5-4-4-4/5\4------------------7-
D |--5-5/7-9-9-9/10---------------------7-5-5/7-9-9-9/10---
A |--------------------------------------------------------
E |--------------------------------------------------------

G |--7-7-7-5-4-4-4/5\4----|--------------------------------
D |---------------------5-|--------------------------------
A |-----------------------|-----0-2-2-2/3-3-3/5-5\3-2-----0
E |-----------------------|-3-3-----------------------3-3--

G |--------------------------------------------------------
D |--------------------------------------------------------
A |--2-2-2/3-3-3/5(mantener nota)--------------------------
E |--------------------------------------------------------


Verso:
G |-----------------7-7-7-7-5-4-4-4/5\4------------------7-
D |--5-5/7-9-9-9/10---------------------7-5-5/7-9-9-9/10---
A |--------------------------------------------------------
E |--------------------------------------------------------

G |--7-7-7-5-4-4-4/5\4------
D |--------------------7-5--  (repetir varias veces)
A |-------------------------
E |-------------------------


Pre-Chorus:
G |---------------------------------------------|----------
D |-------------------------------------5-5-4---|----------
A |--12\3-3-3-3-5-5-3-5-7-7-5-3-3/5-3-5-------5-|-3/5-7-5-3
E |---------------------------------------------|----------


Coro:
G |-----------------------------------|--------------------
D |-----------------------------------|--------------------
A |--15\7-7-5-3-3-3/5-5\3/5/10-10-9-7-|-7-5-3-3-3/5-3/5-3/5
E |-----------------------------------|--------------------

G |-------------|-------------------------------|----------
D |-------------|-------------------------------|----------
A |--10-9-7-5/7-|-7-7-5-3-3-3/5-5\3/5/10-10-9-7-|-7-5-3-3--
E |-------------|-------------------------------|----------

G |--------------------------------------------------------
D |--------------------------------------------------------
A |--3/5-3/5-3/5-10-9-7-5/7(mantener nota)-----------------
E |--------------------------------------------------------
              + (REPETIR TODO DOS VECES) +


Puente:
G |-----------------7-7-7-7-5-4-4-4/5\4------------------7-
D |--5-5/7-9-9-9/10---------------------7-5-5/7-9-9-9/10---
A |--------------------------------------------------------
E |--------------------------------------------------------

G |--7-7-7-4-4-4/5\4---------------------------------------
D |------------------7-5-----------------------------------
A |--------------------------------------------------------
E |--------------------------------------------------------


Verso 2:
G |--------------------------------------------------------
D |--------------------------------------------------------
A |------0-2-2-2/3-3-3/5-5\3-2-----0-2-2-2/3-3-3/5---------
E |--3-3-----------------------3-3-------------------------
    + (REPETIR VARIAS VECES HASTA LLEGAR AL PRE-CHORUS) +


Pre-Chorus:
G |------------------------------------------|-------------
D |----------------------------------5-5-4---|-------------
A |--3-3-3-3-5-5-3-5-7-7-5-3-3/5-3-5-------5-|-3/5-7-5-3---
E |------------------------------------------|-------------


Coro:
G |-----------------------------------|--------------------
D |-----------------------------------|--------------------
A |--15\7-7-5-3-3-3/5-5\3/5/10-10-9-7-|-7-5-3-3-3/5-3/5-3/5
E |-----------------------------------|--------------------

G |-------------|-------------------------------|----------
D |-------------|-------------------------------|----------
A |--10-9-7-5/7-|-7-7-5-3-3-3/5-5\3/5/10-10-9-7-|-7-5-3-3--
E |-------------|-------------------------------|----------


G |--------------------------------------------------------
D |--------------------------------------------------------
A |--3/5-3/5-3/5-10-9-7-5/7(mantener nota)-----------------
E |--------------------------------------------------------
            + (REPETIR TODO VARIAS VECES) +


Bueno se que se ve media complicada pero en realidad es super
sencilla, espero que les guste!
Suggest correction
Give kudos to tab author, rate the tab!
1 2 3 4 5
comments
print report bad tab
guest
You may want to rate the tab now too:
select rating
Wanna post a correction for this tab? Suggest correction