Oops, an error
Loading. Please wait.

Vivir Sin Aire (Unplugged) Tab

version 2
version 2

Whole song

by Maná
37 views 1 this week
no commentswrite comment
1 2 3 4 5
3 more votes to show rating
add to favorites
launch autoscroll
font size
0
reset
how to read this tab
guitar tuner
×
Best way to learn
"Vivir Sin Aire (unplugged)"
Autoscroll
slow
fast
+/-
esc
set tempo
stop
ESTA ES  LA  VERSION  ORIGINAL  DE  LA CANCION
VIVIR SIN AIRE 'UNPLUGGED', PARA PODERLA TOCAR
IGUAL QUE ELLOS  DEBES DE PRACTICAR MUCHO ESTA 
TABLATURA, TE RECOMENDAMOS  QUE AFINES TU 
GUITARRA IGUAL QUE ELLOS,MUY PRONTO LES MANDARE
LA TABLATURA DEL BAJO DE ESTA CANCION PARA QUE 
LOS TOQUE EN  TU  LIRA, TUS AMIGOS PETER Y FER 
SALUDOS  A  NUESTROS AMIGOS Y AMIGAS DE XALAPA, 
VERACRUZ,MEXICO LA MAS BELLA DEL PAIS. 


Introducción original de la canción (guitarra)
                                     (Sergio)
  [ch]G     [ch]Bm7[/ch]      [ch]C [/ch]       RE [/ch]    

E-3------5-2----2---0---0----0-2----33/5/0-----|
B--0--------3----3---1---1------3---33/5/0-----|
G---0--------2----2---0---0------2-------------|
D----------------------------------------------|
A------0-2-2----2---3---3----0-----------------|
E-3---3----------------------------------------|
                          Un poco rápido esta parte

E-3------5-2----2---0---3--322-0---------------------|
B--0--------3----3---1-----333-1-310-----------------|
G---0--------2----2---0----------420-----------------|
D----------------------------------------------------|
A------0-2-2----2---3---3----------------------------|
E-3---3----------------------------------------------|


Riff (1)

E-3/5-55-32-22320----2-32-3--------------------------|
B-3/5-55-33-33331-33--3--3---------------------------|
G-----------------44---------------------------------|
D----------------------------------------------------|
A----------------------------------------------------|
E----------------------------------------------------|


Riff (2)

E-----3----353---------------------------------------|
B-3/5---35-353-3555--5555-33-11----------------------|
G-------45-----4555--5555-44-22----------------------|
D----------------------------------------------------|
A----------------------------------------------------|
E----------------------------------------------------|


Riff(3)
      [ch]D [/ch]      [ch]C [/ch]
E----------------------------------------------------|
B-7-8--10-8-7-5-8-7-5--3-5-3-1-0---1-----------------|
G----------------------------------------------------|
D----------------------------------------------------|
A----------------------------------------------------|
E----------------------------------------------------|


Riff (4)

E------------0---------------------------------------|
B-01-35-5-78-1---555--333--1-------------------------|
G-00-45-5-77-----555--444--2-------------------------|
D----------------------------------------------------|
A----------------------------------------------------|
E----------------------------------------------------|


Riff (5)

E-----3-5-3------------------------------------------|
B-3-5-------3-5-5-5-----5-5-5-3-3-3-1-0--------------|
G----------------------------------------------------|
D----------------------------------------------------|
A----------------------------------------------------|
E----------------------------------------------------|


[ch]G         [ch]Bm7  [ch]C      [ch]D         SOL[/ch] SIm7[/ch]  DO[/ch]  RE [/ch]
Como quisiera   poder  vivir  sin aire     Riff [1]


[ch]G       [ch]Bm7  [ch]C       [ch]D         SOL[/ch]  SIm7[/ch]  DO [/ch] RE [/ch]
Como quisiera poder vivir sin agua       Riff(2)


[ch]G       [ch]Bm7  [ch]C       [ch]D         SOL [/ch]  SIm7[/ch] DO [/ch] REm[/ch]
Me encantaría quererte un poco menos     Riff [1]


[ch]G       [ch]Bm7   [ch]C      [ch]D         SOL [/ch] SIm7[/ch] DO [/ch] RE [/ch]
Como quisiera   poder vivir sin ti    Riff [2]

[ch]C        [ch]D      Em[/ch]         DO [/ch]
Pero no puedo,    siento que muero

[ch]G [/ch]                    [ch]D [/ch]
Me estoy ahogando sin tu amor   Riff [3]

Em              [ch]C              SOL [/ch]
Como quisiera  poder vivir sin aire

Em              [ch]C               RE [/ch]
Como quisiera  calmar mi aflicción 

 Em             [ch]C              SOL [/ch]
Como quisiera  poder vivir sin agua

Em              [ch]C            RE [/ch]
Me encantaría  robar tu corazón 

Se repite la misma introducción sin cambio alguno
( esto se toca con los mismo acordes de las estrofas anteriores )


Como pudiera un pez nadar sin agua  Riff [4]

Como quisiera  poder vivir sin ti   Riff  [5]

Pero no puedo, siento que muero
Me estoy ahogando sin tu amor ...     Riff [3]


Como quisiera lanzarte al olvido
Como quisiera guardarte en un cajón 
Como quisiera   borrarte de un soplido 
Me encantaría  matar esta canción  


Esta es la figura final de la canción con todo 
y el requinto ( se escucha mortal ).

E-3-2-0-------2-3-0-0--2--0--------------------------|
B-3-3-1-3---3-3-3-1----3--1--------O-----------------|
G-------4---4-----0----2--0-------0------------------|
D-------------------------0------0-------------------|
A-------------------------------2--------------------|
E------------------------------3---------------------|


Requinto final  ( este arreglo va muy rápido
Tienes que tener un poco de agilidad en tus dedos )

E-9-10-12-9-10----9------------------------| 1ª CUERDA
B--------------12---10-12-9-10-5-----------| 2ª CUERDA
G---------------------------------7-6------| 3ª CUERDA

SI TE GUSTO LA TABLATURA, ESCRIBEME Y TE PUEDO 
MANDAR OTRAS CANCIONES,PRACTICA MUCHO LA LIRA...
Suggest correction
Give kudos to tab author, rate the tab!
1 2 3 4 5
comments
print report bad tab
guest
You may want to rate the tab now too:
select rating
Wanna post a correction for this tab? Suggest correction