Oops, an error
Loading. Please wait.

Vivir Sin Aire (Unplugged) Tab

version 4
version 4

Whole song

34 views 1 this week
no commentswrite comment
1 2 3 4 5
3 more votes to show rating
add to favorites
launch autoscroll
font size
0
reset
how to read this tab
guitar tuner
Autoscroll
slow
fast
+/-
esc
set tempo
stop
Help us to improve Ultimate-Guitar.com Take our survey!
×
PARA UNA NIÑA MUY ESPECIAL EN MI VIDA "LUCERO CARRASCO MAURICIO"

TE AMO LUCERO!...:D

Primera parte: (intro)

1|------0-0-0-|----------0-|------2-0-0-0-|--------------0-----|
2|0-1-3---1-1-|111-3-1-0-1-|111-3-----0-0-|000-1-0------0-0----|
3|--------2-0-|----------2-|----------0-2-|--------2---0---0---|
4|--------2-2-|----------0-|----------0-0-|-----------2-----2--|
5|--------0-0-|----------0-|----------2-0-|----------2-------2-|
6|--------0-3-|----------2-|----------3-2-|---------0---------0|

I-----------0-0-|-----------0-|-0-x-------0-1-2-1-4-2-1-0----0-0
I-000-1-3-0-1-1-|-111-3-1-0-1-|-1-x-111-3----------------3-1-0-0
I-----------2-0-|-----------2-|-2-x--------------------------0-2
I-----------2-2-|-----------0-|-0-x--------------------------0-0
I-----------0-0-|-----------0-|-0-x--------------------------2-0
I-----------0-3-|-----------2-|-2-x--------------------------3-2

I----------------0------|----------------|--------------12-----|
I-000-2-0-------0-0-----|-------1-0------|-000-2-0--------12---|
I---------3----0---0----|-000-2------2-2-|---------3-4------12-|
I-------------2-----2---|------------2-1-|-----------4---------|
I------------2-------2--|------------0-2-|-----------2---------|
I-----------0---------0-|------------1-0-|-----------0---------|


Segunda parte:

  Em        D           C        (Este pedacito va rápido)
I-7------|-5-------|-3------|------------------|
I-8---8--|-7---7---|-5---5--|---3-0-----0----0-|
I-9--9---|-7--7-7--|-5--5---|--2------------0--|
I-9-9----|-7-7-----|-5-5----|-0------------2---|
I-7------|-5-------|-3------|------------------|
I--------|---------|--------|-----------3------|

(Este ya va normal...)
I----------------------|----------------------|
I-----1--0-------3-----|-0----0---------------|
I---0-------2------2---|-----0---2--0---3-1-0-|
I-2------------0-----0-|----2-----------------|
I----------------------|----------------------|
I--------3--2----------|-3-------0--0---------|

I-----------------------|---------------0-------|
I-1----1--0-------3-----|-0----0----------3-1-0-|
I-----0------2------2---|-----0---2--0----------|
I----2----------0-----0-|----2------------------|
I-----------------------|-----------------------|
I-0-------3--2----------|-3-------0--0----------|

I------------------------|----------------------------------|
I-1----1--0--------3-----|---3-3-3-3-----3----3-3-3-3----3--|
I-----0------2-------2---|------------------------------4-4-|
I----2----------0------0-|---4-4-4-4---4--4---4-4-4-4--4----|
I------------------------|---4-4-4-4-4--4-----4-4-4-4-------|
I-0-------3--2-----------|-0--------------------------------|


I-------------------|----------------------|
I-3-3-3-3-----------|-1----1--0--------3---|
I-------------------|-----0------2------2--|
I-4-4-4-4-----------|----2----------0----0-|
I-4-4-4-4--------0--|----------------------|
I----------0-2-3----|-0-------3--2---------|

I---------------0-------|----------------------|
I-0----0----------3-2-0-|-1----1--0--------3---|
I-----0---2--0----------|-----0------2------2--|
I----2------------------|----2----------0----0-|
I-----------------------|----------------------|
I-3-------0--0----------|-0-------3--2---------|

I-----------0-3-2-0---------------------------12----|
I------------------3-1-0-----------------------12---|
I------------------------2-0---------------------12-|
I--------0-------------------4-2-0------------------|
I-------2--------------------------3-2--------------|
I-0-2-3--------------------------------3-2-0--------|


intro II

-3-----3-5-2---5-0---3---2-----5/3----------------
-3----3----3--3--1--1-1--3-3/5-----3--------------
-----0-----2-2---0-0---0-2------------------------
----0--------------------0------------------------
-----------2-----3--------------------------------
-3------------------------------------------------(INTRO)

-3-----3-5-2---5-0---3---3-3--2-2--0-0------------
-3----3----3--3--1--1-1--3-3--3-3--1-1--3-3--1-1--
-----0-----2-2---0-0---0----------------4-4--2-2--
----0---------------------------------------------
-----------2-----3--------------------------------
-3------------------------------------------------(INTRO)

-3-----3-5-2---5-0---3---2-----5/3----------------
-3----3----3--3--1--1-1--3-3/5-----3--------------
-----0-----2-2---0-0---0-2------------------------
----0--------------------0------------------------
-----------2-----3--------------------------------
-3------------------------------------------------


-3-----3-5-2---5-0---3----3-----------------------
-3----3----3--3--1--1-1---1-----------------------
-----0-----2-2---0-0---0--0-----------------------
----0---------------------2-----------------------
-----------2-----3--------3-----------------------
-3------------------------------------------------

Como pudiera pode vivir sin aire

--3/5--5-5--3-2--2-2-3-2-0-------2--3--2-3--------
--3/5--5-5--3-3--3-3-3-3-1-------3--3--3-3--------
----------------------------1/3-------------------
----------------------------2/4-------------------
--------------------------------------------------
--------------------------------------------------(riff1)

Como quisiera poder vivir sin agua

-----3------3-5-3---------------------------------
-3/5----3-5-3-5-3--3-3/5--5-5-5-3-3-3-1-----------
--------4-5--------4-4/5--5-5-5-3-4-4-2-----------
--------------------------------------------------
--------------------------------------------------
--------------------------------------------------(riff2)

Me encantaria quererte un poco menos (riff1)
Como quisiera poder vivir sin ti (riff2)
Pero no puedo, siento que muero
Me estoy ahogando sin tu amor

--2-3-5-3-2---3-2---------------------------------
------------5-----5-3-----------------------------
----------------------5-4-------------------------
--------------------------5-0---------------------
--------------------------------------------------
--------------------------------------------------(riff3)

INTRO

Como pudiera un pez nadar sin agua

-----------2-3-0-----------------------------------
------3-5--3-3-1--5-5-5-3-3------------------------
--4-5-4-5---------5-5-5-4-4--4-5-------------------
--5-5------------------------5-5-------------------
---------------------------------------------------
---------------------------------------------------(riff4)

Como pudiera un ave volar sin alas

--------7---5---3--2-3-0-----2-3-2-2-3-------------
----5-7---5---3----3-3-1-1-3-3-3-3-3-3-------------
-------------------------2-4-----------------------
---------------------------------------------------
---------------------------------------------------
---------------------------------------------------(riff5)

Como pudiera la flor crecer sin tierra

-----------2-3-0-------------2-3-------------------
------3-5--3-3-1--5-5-5-3-3--3-3-------------------
--4-5-4-5---------5-5-5-4-4------------------------
--5-5----------------------------------------------
---------------------------------------------------
---------------------------------------------------(riff6)

Como quisiera poder vivir sin ti

--------7---5---3--2-3-0-0-------------------------
----5-7---5---3----3-3-1-1---3-3-0-0-1-3-----------
-----------------------------4-4-0-0-2-4-----------
---------------------------------------------------
---------------------------------------------------
---------------------------------------------------(riff7)

Pero no puedo, siento que muero
Me estoy ahogando sin tu amor(riff3)

Como quisiera poder vivir sin aire
Como quisiera calmer mi afliccion
Como quisiera poder vivir sin agua
Me encantaria robar tu corazon

Como quisiera lanzarte al olvido
Como quisiera guardarte en un cajon
Como quisiera borrarte de un soplido
Me encantaria matar esta cancion

----3-2-0-----2-3-0--0-----------------------------
----3-3-1-3-3-3-3-1--1-3-1-4-----------------------
----------4-4----------4-2-5-----------------------
---------------------------------------------------
---------------------------------------------------
---------------------------------------------------(Final)
Suggest correction
Give kudos to tab author, rate the tab!
1 2 3 4 5
comments
print report bad tab
guest
You may want to rate the tab now too:
select rating
Wanna post a correction for this tab? Suggest correction