Oops, an error
Loading. Please wait.

Para Ser Un Hombre Más Bass Tab

94 views 3 this week
no commentswrite comment
1 2 3 4 5
3 more votes to show rating
add to favorites
launch autoscroll
font size
0
reset
guitar tuner
Autoscroll
slow
fast
+/-
esc
set tempo
stop
Help us to improve Ultimate-Guitar.com Take our survey!
×
Intro

G|-------------------------------3--------|
D|-3p2p1---3p2p1---3p2p1---3-3h5---5-3----|
A|-------3-------3-------3-------------6-3|
E|----------------------------------------|

G|---------------------------------3--------|
D|---2-3-4h5-------------2-3-3h4h5---5p4p3--|
A|-3---------------1-3-3-------------------3|
E|-----------1-2-3--------------------------|(x2)

G|-------|
D|-------|
A|---3---|
E|-------|


Verso

G|---5----------------------5-5--------|
D|-----2-3-4-5--7-7-5---5h7-----7-5----|
A|-3------------------7-------------7--|
E|-------------------------------------|

G|---5---------------------------------|
D|-----2-3-4-5--2-2-0---0h2p0---0-2----|
A|-3------------------2-------2--------|
E|-------------------------------------|

G|----------------------------------------3---3-5-5h6-5-3-----------5---5|
D|-3----------------------3---3-4-4h5-4h5---5-------------5-3------------|
A|---0-1-2-3--5-5-3---3-5---5---------------------------------5-4-3---3--|
E|------------------5----------------------------------------------------|

G|-------------------------------3--------|
D|--2-3-4-5------------2-3-3h4h5---5p4p3--|
A|---------------1-3-3-------------------3|
E|---------1-2-3--------------------------|

G|---------------------------------3--------|
D|---2-3-4h5-------------2-3-3h4h5---5p4p3--|
A|-3---------------1-3-3-------------------3|
E|-----------1-2-3--------------------------|

Verso "Gente que habla mucho..."

G|---5----------------------5-5--------|
D|-----2-3-4-5--7-7-5---5h7-----7-5----|
A|-3------------------7-------------7--|
E|-------------------------------------|

G|---5------------------------0-0------|
D|-----2-3-4-5--0h2-2-0---0h2-----2-0-2|
A|-3--------------------2--------------|
E|-------------------------------------|

G|----------------------------------------3---3-5-5h6-5-3-----------5---5|
D|-3----------------------3---3-4-4h5-4h5---5-------------5-3------------|
A|---0-1-2-3--5-5-3---3-5---5---------------------------------5-4-3---3--|
E|------------------5----------------------------------------------------|

G|-------------------------------3--------|
D|--2-3-4-5------------2-3-3h4h5---5p4p3--|
A|---------------1-3-3-------------------3|
E|---------1-2-3--------------------------|

G|---------------------------------3--------|
D|---2-3-4h5-------------2-3-3h4h5---5p4p3--|
A|-3---------------1-3-3-------------------3|
E|-----------1-2-3--------------------------|

"¿Cuanto tiempo llevo..."

G|-9-9p7-----------------5-----------|
D|-------9-5h7p5-----------2-3-4-5---|
A|---------------7-5-2-3-------------|
E|-----------------------------------|

G|---6h8p6---6h8p6-----------5--------|
D|---------8-------8-6---------2-3-4-5|
A|-6-------------------6-4-3----------|
E|------------------------------------|

G|----------------------------------|
D|---------------3-----------3------|
A|-3h5-5-3---3h5---5-3---3h5---5----|
E|---------5-----------5------------|

G|------------3---3-5-5h6-5-3-----------5---5|
D|3-4-4h5-4h5---5-------------5-3------------|
A|--------------------------------5-4-3---3--|
E|-------------------------------------------|

G|-------------------------------3--------|
D|--2-3-4-5------------2-3-3h4h5---5p4p3--|
A|---------------1-3-3-------------------3|
E|---------1-2-3--------------------------|

G|---------------------------------3--------|
D|---2-3-4h5-------------2-3-3h4h5---5p4p3--|
A|-3---------------1-3-3-------------------3|
E|-----------1-2-3--------------------------|

Solo de Guitarra = Verso

Verso "Somos tan diferentes..."

"Sigo organizando..."

G|---9p7---7-9p7-----------5-----------|
D|-------9-------9-7---------2-3-4-5---|
A|-7-----------------7-5-3-------------|
E|-------------------------------------|

G|---8-6--------------------------5----------|
D|-------8-7-6-4--------------------2-3-4-4-5|
A|-6-------------6-4-1-4-3--6-4-3------------|
E|-------------------------------------------|

G|----------------------------------|
D|---------------3-----------3------|
A|-3h5-5-3---3h5---5-3---3h5---5----|
E|---------5-----------5------------|

G|------------3---3-5-5h6-5-3-----------5---5|
D|3-4-4h5-4h5---5-------------5-3------------|
A|--------------------------------5-4-3---3--|
E|-------------------------------------------|

G|-------------------------------3--------|
D|--2-3-4-5------------2-3-3h4h5---5p4p3--|
A|---------------1-3-3-------------------3|
E|---------1-2-3--------------------------|

G|---5------------------------------------3--------|
D|-----2-3s-5-5-5p4p3-----------2-3-3h4h5---5p4p3--|
A|-3------------------5p4p3-3-3-------------------3|
E|-------------------------------------------------|

Verso "Chicas muy arregladas..."
Verso "Cambio por éste día..."

"Un hombre más..."

G|-----------5---------5----------|
D|-7-5---5h7---7-5-------2-3-4-5--|
A|-----7----------7s-3------------|
E|--------------------------------|

G|---------------5-5----------5--------------|
D|-5h7-7-5---5h7-----7-5--------2-3-3-4-4-5--|
A|---------7-------------7s-3----------------|
E|-------------------------------------------|

G|---------------5--------------|
D|-5h7-7-5---5h7---7-5----------|
A|---------7-----------7s-3-----|
E|------------------------------|

Final

G|---------------------------------3--------|
D|---2-3-4h5-------------2-3-3h4h5---5p4p3--|
A|-3---------------1-3-3-------------------3|
E|-----------1-2-3--------------------------|

G|-------------------|
D|---2-3-5-----------|
A|-3-------------1-3-|
E|---------1-2-3-----|

Muy buen bajo.
Suggest correction
Give kudos to tab author, rate the tab!
1 2 3 4 5
comments
print report bad tab
guest
You may want to rate the tab now too:
select rating
Wanna post a correction for this tab? Suggest correction