Oops, an error
Loading. Please wait.

Todo El Día Me Pregunto Tab

61 views 1 this week
no commentswrite comment
1 2 3 4 5
3 more votes to show rating
add to favorites
launch autoscroll
font size
0
reset
how to read this tab
guitar tuner
×
Best way to learn
"Todo El Día Me Pregunto"
Autoscroll
slow
fast
+/-
esc
set tempo
stop
Intro: A7 / / /  D7 / A7 /  E7 D7 A5-C#5-D5-D#5 E5

A7
  Todo el día me pregunto
       G7       A7
¿para qué vivo así?
D7
  Todo el día me pregunto
       C7       A7
¿para qué vivo así?,
E7
  caminando sin parar,
D7                    C7           A7   C7-D7-E7-C7
  casi siempre sin dormir, y ¿por qué?


A7
  ¿Cómo puedo estar tan solo?,
        G7             A7
no hay quién piense en mí.
D7
  ¿Cómo puedo estar tan solo?,
        C7             A7
no hay quién piense en mí.
E7
  ¿Mis amigos dónde están?,
D7                     C7          A7   C7-D7-E7-C7
   hoy no vienen hasta mí, y ¿por qué?

Solo: A7 C7 A7 C7 E7 D7 E7 D7 A7 E7

A7
  Todo el día me pregunto
       G7       A7
¿para qué vivo así?
D7
  Todo el día me pregunto
       C7       A7
¿para qué vivo así?,
E7
  caminando sin parar,
D7                    C7           A7   C7-D7-E7-C7
  casi siempre sin dormir, y ¿por qué?


A7
  ¿Cómo puedo estar tan solo?,
        G7             A7
no hay quién piense en mí.
D7
  ¿Cómo puedo estar tan solo?,
        C7             A7
no hay quién piense en mí.
E7
  ¿Mis amigos dónde están?,
D7                     C7          A7   C7-D7-E7-C7
   hoy no vienen hasta mí, y ¿por qué?

Outro: A7 C7 A7 C7


Intro:
 A7
*---------*---------*---------*--3/5\5--*--3/5\5--*--3/5\5--*--3/5\5--*--3-3-3/5-5--*
*---------*---------*---------*--3/5\5--*--3/5\5--*--3/5\5--*--3/5\5--*--3-3-3/5-5--*
*---------*---------*---------*---------*---------*---------*---------*-------------*
*---------*---------*---------*---------*---------*---------*---------*-------------*
*---------*---------*---------*---------*---------*---------*---------*-------------*
*---------*---------*---------*---------*---------*---------*---------*-------------*

 D7
*--5-5-5/7-7-7--5-5-5-5/7-7-7---*--5-5-5/7-7-7--5-5-5-5/7-7-7---*
*--5-5-5/7-7-7--5-5-5-5/7-7-7---*--5-5-5/7-7-7--5-5-5-5/7-7-7---*
*-------------------------------*-------------------------------*
*-------------------------------*-------------------------------*
*-------------------------------*-------------------------------*
*-------------------------------*-------------------------------*

 A7
*--3/5\5--*--3/5\5--*--3-3-3/5-5--*
*--3/5\5--*--3/5\5--*--3-3-3/5-5--*
*---------*---------*-------------*
*---------*---------*-------------*
*---------*---------*-------------*
*---------*---------*-------------*

 E7                              D7
*--7-7-7/9-9-9--7-7-7-7/9-9-9---*--5-5-5/7-7-7--5-5-5-5/7-7-7---*
*--7-7-7/9-9-9--7-7-7-7/9-9-9---*--5-5-5/7-7-7--5-5-5-5/7-7-7---*
*-------------------------------*-------------------------------* A5-C#5-D5-D#5 E5
*-------------------------------*-------------------------------*
*-------------------------------*-------------------------------*
*-------------------------------*-------------------------------*

 Solo:

 A7                   C7      A7                   C7      E7                  D7 
*----------------------------*----------------------------*---------------------------*
*---------------------8b^r8--*---------------------8b^r8--*---------------------------*
*--7b^r7-5-7-5---5-7---------*--7b^r7-5-7-5---5-7---------*--7b^r7-5-7-5-------5--7-7-*
*----------------------------*----------------------------*----------------5-7--------*
*----------------------------*----------------------------*---------------------------*
*----------------------------*----------------------------*---------------------------*

 E7                  D7
*-----------------------------------------------*
*------------------------------------8-10-10-13-*
*--7b^r7-5-7-5-------5--7-7--/9-9--9------------*
*----------------5-7----------------------------*
*-----------------------------------------------*
*-----------------------------------------------*

 A7
*----------------------------------------------------------------------------*
*--15bb15b15b15-b15b15b15b15-b15b15b15b15-15b^r15-13-15bb15b15-r15^13-15-----*
*------------------------------------------------------------------------14--*
*----------------------------------------------------------------------------*
*----------------------------------------------------------------------------*
*----------------------------------------------------------------------------*
 E7
*-------------------------------------------------------------**
*--13^15^13----13^15^13----13^15^13----13-15^13----15----13\--**
*-----------14----------14----------14----------14----14------**
*-------------------------------------------------------------**
*-------------------------------------------------------------**
*-------------------------------------------------------------**
Suggest correction
Give kudos to tab author, rate the tab!
1 2 3 4 5
comments
print report bad tab
guest
You may want to rate the tab now too:
select rating
Wanna post a correction for this tab? Suggest correction