Oops, an error
Loading. Please wait.

La Leona Bass

11 views 1 this week
no commentswrite comment
1 2 3 4 5
3 more votes to show rating
add to favorites
launch autoscroll
font size
0
reset
guitar tuner
×
Best way to learn
"La Leona"
Autoscroll
slow
fast
+/-
esc
set tempo
stop
Este es el bajo de toda la cancion

G|-----------------------------------------------|
D|---------3-4-5---------------------------------|
A|-3-3-3-5---------3--5--------------------------|
E|----------------------3-3-3-3-1-3------------3-|

G|-----------------------------------------------|
D|---------3-4-5------------------------5----5---|
A|-3-3-3-5---------3--5--------------3p5--3p5----|
E|-----------------------3-3-3-3-1-3-----------3-|

Eso es todo, se repite en toda la cancion

un abrazo a mis hermanos de mañana me chanto
carlox y andrex palanka! xD

saludos!
Suggest correction
Give kudos to tab author, rate the tab!
1 2 3 4 5
comments
print report bad tab
guest
You may want to rate the tab now too:
select rating
Wanna post a correction for this tab? Suggest correction