Oops, an error
Loading. Please wait.

Me Gustas Tú Chords

version 3
version 3

Whole song

240 views 1 this week
no commentswrite comment
1 2 3 4 5
3 more votes to show rating
add to favorites
launch autoscroll
font size
0
reset
transpose
0
reset
display chords
guitar tuner
×
Best way to learn
"Me Gustas Tú"
Autoscroll
slow
fast
+/-
esc
set tempo
stop
Intro

e |-----------------------------------|
B |------3-4-3---------5-6-5-4---4-3--|
G |--3-3-------3---3-3---------3------|
D |-----------------------------------|
A |-----------------------------------|
E |-----------------------------------|

e |-----------------------------------|
B |------3-4-3-----5-6-5-----5-6-5-4--|
G |--3-3-------3-3-------5-5----------|
D |-----------------------------------|
A |-----------------------------------|
E |-----------------------------------|

          Bb                  Eb
Me gustas tu, solo tu y nadie mas,
               C                     F
me gusta como caminas que pareces flotar,
          Bb               Eb
me gustas tu, y me quiero acercar
                C                  F
solo espero el momento, solo una señal.


           Eb                   Bb
no se si tenga el valor o las palabras,
           Eb                     F
para que sepas lo que yo siento por ti..


      Bb                           Eb
me gustaria darte el cielo, me gustaria darte el mar,
 C                             F
iluminar con las estrellas tu silueta al caminar,
      Bb                             Eb
me gustaria darte el beso que yo he guardado para ti,
    C                            Eb       F
me gustaria darte todo y si no existe.. inventarlo
          Bb      Eb  C   F
solo para ti..


          Bb                Eb
me gustas tu, no lo puedo evitar
                   C                      F
me gusta verte de lejos, me gusta verte llegar
          Bb                Eb
me gustas tu en mis sueños estas,
                  C                F
te metiste en mi vida no lo quise evitar..


           Eb                   Bb
no se si tenga el valor o las palabras,
           Eb                       F
para que sepas lo que yo siento por ti..


      Bb                          Eb
me gustaria darte el cielo, me gustaria darte el mar,
 C                           F
iluminar con las estrellas tu silueta al caminar,
      Bb                              Eb
me gustaria darte el beso que yo he guardado para ti,
     C                           Eb       F
me gustaria darte todo y si no existe.. inventarlo
          Bb
solo para ti.


         Bb                     Eb
y yo siempre imaginandome a tu lado,
   C                          F
queriendo ser el dueño de tu amor   ohoo..


      Bb                         Eb
me gustaria darte el cielo, me gustaria darte el mar.. uuh


      B                                          E
me gustaria darte el cielo, me gustaria darte el mar,
 C#                           F#
iluminar con las estrellas tu silueta al caminar,
      B                               E
me gustaria darte el beso que yo he guardado para ti,
     C#                           E       F#
me gustaria darte todo y si no existe.. inventarlo
          B
solo para ti.

e |-----------------------------------|
B |------4-5-4---------6-7-6-5---5-4--|
G |--4-4-------4---4-4---------4------|
D |-----------------------------------|
A |-----------------------------------|
E |-----------------------------------|

e |-----------------------------------|
B |------4-5-4-----6-7-6-----6-7-6-5--|
G |--4-4-------4-4-------6-6----------|
D |-----------------------------------|
A |-----------------------------------|
E |-----------------------------------|

Y termina en B.

Dedicada a la chica que alegra mis dias.
Me encantas como no tienes idea,
Eres lo mejor que me trajo la universidad,
Me gustas tu Playvolk Girl :)! 19!
Suggest correction
Give kudos to tab author, rate the tab!
1 2 3 4 5
comments
print report bad tab
guest
You may want to rate the tab now too:
select rating
Wanna post a correction for this tab? Suggest correction