Oops, an error
Loading. Please wait.

Manjar Místico Tab

version 2
version 2

Whole song

31 views 1 this week
no commentswrite comment
1 2 3 4 5
3 more votes to show rating
add to favorites
launch autoscroll
font size
0
reset
how to read this tab
guitar tuner
×
Best way to learn
"Manjar Místico"
Autoscroll
slow
fast
+/-
esc
set tempo
stop
fill:1
1:----------------10-10-------------------10-10---------
2:----------10----------13-12-------10----------13-12---
3:----12-12----12-------------12-12----12---------------
4:------------------------------------------------------
5:------------------------------------------------------
6:------------------------------------------------------

[ch]F# -[ch]A#m[/ch] -SI[/ch]- [ch]C#[/ch]  repite 3 veces

verso:

[ch]F#[/ch]
me unges con tu lengua
[ch]A#m[/ch]
se exorcisan mis demonios
[ch]B[/ch]
puerta abierta al inconciente
[ch]C#[/ch]
al laberinto de la muerte

verso:

[ch]F#[/ch]
el sentimiento se equiboca
[ch]A#m[/ch]
en las texturas de tu boca
[ch]B[/ch]
corrientazo de sabores
[ch]C#[/ch]
lo divino en mil dolores

fill:1
[ch]F# -[ch]A#m[/ch] -SI[/ch]- [ch]C#[/ch]

verso:

[ch]F#[/ch]
el valor de tus esquinas
[ch]A#m[/ch]
tan caliente y oloroso
[ch]B[/ch]
esta impregnado en mi memoria
[ch]C#[/ch]
y me eleva a lo glorioso

verso:

[ch]F#[/ch]
la materia que me explica
[ch]A#m[/ch]
se transforma por tus dioses
[ch]B[/ch]
en orgasmos
[ch]C#[/ch]
vibran  cuerpos aun gosozos


coro:

[ch]D#[/ch]
soy manjar mistico
[ch]F#[/ch]
vino pan y frutas verdes
[ch]G#[/ch]
que a caprichos de una diva
[ch]B[/ch]
me degluta hasta la muerte


fill 1 :coro


verso:

[ch]F#[/ch]
al olimpo me condenan
[ch]A#m[/ch]
a un infierno en lo divino
[ch]B[/ch]
mil orgias tantas diosas
[ch]C#[/ch]
en orgasmos clanndestinos

verso:

[ch]F#[/ch]
manjar mistico y divino
[ch]A#m[/ch]
se mastiva y saborea
[ch]B[/ch]
se excrementa en el ovido
[ch]C#[/ch]
para que nadie lo crea

coro:

[ch]F#[/ch]
soy manjar mistico
[ch]A#m[/ch]
vino pan y frutas verdes
[ch]B[/ch]
a crapichos de una diva
[ch]C#[/ch]
me degluta hasta la muerte

[ch]F# -[ch]A#m[/ch] -SI[/ch]- [ch]C#[/ch]  fill:1
[ch]F# -[ch]A#m[/ch] -SI[/ch]- [ch]C#[/ch]  fill:1

fill:2

2:---12----12----12----13----15----13----12----13
3:------12----12----12----12----12----12----12---


fill:3

2:---14----14----15----15----14----14----17----17---
3:------15----15----15----15----15----15----15----15


final:

1:------14----15----17----15----14----15----17----15-14-
2:---15----15----15----15----15----15----15----15-------

1:---15-------------------------------------------------
2:15----15----------------------------------------------
Suggest correction
Give kudos to tab author, rate the tab!
1 2 3 4 5
comments
print report bad tab
guest
You may want to rate the tab now too:
select rating
Wanna post a correction for this tab? Suggest correction