Oops, an error
Loading. Please wait.

Noche De Acción Bass

49 views 1 this week
no commentswrite comment
1 2 3 4 5
3 more votes to show rating
add to favorites
launch autoscroll
font size
0
reset
guitar tuner
×
Best way to learn
"Noche De Acción"
Autoscroll
slow
fast
+/-
esc
set tempo
stop
G|-------------------------------6-----8----------------|
D|-------6-----6-----6-----6--4-----6--------6-----6----| x5
A|----4-----4-----4-----4-----------------4-----4-------|
E|------------------------------------------------------|

G|----6-----6-----6-----6-----10----10----10----10-|----6-----6-----6-----6-----10----10----10----10-|
D|-4-----4-----4-----4-----8-----8-----8-----8-----|-4-----4-----4-----4-----8-----8-----8-----8-----|
A|-------------------------------------------------|-------------------------------------------------|
E|-------------------------------------------------|-------------------------------------------------|

G|-------------------------------6-----8----------------|
D|-------6-----6-----6-----6--4-----6--------6-----6----| x5
A|----4-----4-----4-----4-----------------4-----4-------|
E|------------------------------------------------------|

G|-------12----12----12----12---------------------------|-------6-----6-----6-----6-----10----10----10----10---|
D|----10----10----10----10-------8-----8-----8-----8----|----4-----4-----4-----4-----8-----8-----8-----8-------|
A|----------------------------6-----6-----6-----6-------|------------------------------------------------------|
E|------------------------------------------------------|------------------------------------------------------|

G|-------6-----6-----6-----6-----10----10----10----10---|
D|----4-----4-----4-----4-----8-----8-----8-----8-------|
A|------------------------------------------------------|
E|------------------------------------------------------|

G|----------------------------6-----8-------------|----------------------------6-----8-------------|
D|----6-----6-----6-----6--4-----6--------6-----6-|----6-----6-----6-----6--4-----6--------6-----6-|
A|-4-----4-----4-----4-----------------4-----4----|-4-----4-----4-----4-----------------4-----4----|
E|------------------------------------------------|------------------------------------------------|

G|----------------------------6-----8-------------|
D|----6-----6-----6-----6--4-----6--------6-----6-|
A|-4-----4-----4-----4-----------------4-----4----|
E|------------------------------------------------|

G|-----12----12----12----12-------------------------|
D|--10----10----10----10-------8-----8-----8-----8--|
A|--------------------------6-----6-----6-----6-----|
E|--------------------------------------------------|

G|----6-----6-----6-----6-----10----10----10----10-|----6-----6-----6-----6-----10----10----10----10-|
D|-4-----4-----4-----4-----8-----8-----8-----8-----|-4-----4-----4-----4-----8-----8-----8-----8-----|
A|-------------------------------------------------|-------------------------------------------------|
E|-------------------------------------------------|-------------------------------------------------|

G|----6-----6-----6-----6-----10----10----10----10-|----6-----6-----6-----6-----10----10----10----10-|
D|-4-----4-----4-----4-----8-----8-----8-----8-----|-4-----4-----4-----4-----8-----8-----8-----8-----|
A|-------------------------------------------------|-------------------------------------------------|
E|-------------------------------------------------|-------------------------------------------------|

G|----12----12----12----12----7-----7-----7-----7--|----12----12----12----12----7-----7-----7-----7--|
D|-10----10----10----10----5-----5-----5-----5-----|-10----10----10----10----5-----5-----5-----5-----|
A|-------------------------------------------------|-------------------------------------------------|
E|-------------------------------------------------|-------------------------------------------------|

G|----12----12----12----12----7-----7-----7-----7--|----12----12----12----12----7-----7-----7-----7--|
D|-10----10----10----10----5-----5-----5-----5-----|-10----10----10----10----5-----5-----5-----5-----|
A|-------------------------------------------------|-------------------------------------------------|
E|-------------------------------------------------|-------------------------------------------------|

G|-----------------------------6-----8--------------|---------||
D|-----6-----6-----6-----6--4-----6--------6-----6--|----%----||
A|--4-----4-----4-----4-----------------4-----4-----|---------||
E|--------------------------------------------------|---------||

consultas?? maro_rnr@
Suggest correction
Give kudos to tab author, rate the tab!
1 2 3 4 5
comments
print report bad tab
guest
You may want to rate the tab now too:
select rating
Wanna post a correction for this tab? Suggest correction