Oops, an error
Loading. Please wait.

Pájaros De Barro Tab

412 views 3 this week
no commentswrite comment
1 2 3 4 5
3 more votes to show rating
add to favorites
launch autoscroll
font size
0
reset
how to read this tab
guitar tuner
Autoscroll
slow
fast
+/-
esc
set tempo
stop
Help us to improve Ultimate-Guitar.com Take our survey!
×
 
introducción:

 E||----------------------------------------------------------------------------|
 B||-------1----1----1-------1-----------1-----1---------1----------------------|
 G||---------------------3----------------------------3-------------3-----1-----|
 D||--3------3----3-------------3----3------3------3--------3----3-----3--------|
 A||----------------------------------------------------------------------------|
 E||----------------------------------------------------------------------------|


         
 -------------------------------------------------------------------------------|
 ------1-1*2--2--1------2*1----1---------1--------1------1------1---------------|
 ----3----------------------3----------3----------------------------------------|
 --3---------------------------------------3--------3------3--------------------|
 -------------------------------------------------------------------------------|
 -------------------------------------------------------------------------------|

nota: en el primer asterisco ligamos la nota ascendentemente y en el segundo
descendentemente.


Melodia que hace la voz:

 .
00:22      
 -------------------------------------------------------------------------------|
 -------------------------------------------------------------------------------|
 --1-1-1-1-1-1-0----0-3-1-0-1-0-------1-1-1-0-1-0-----0-3-1-0-1-0---------------|
 -------------------------------3---------------------------------3-------------|        
 -------------------------------------------------------------------------------|
 -------------------------------------------------------------------------------|
          


 -------------------------------------------------------------------------------|
 --------------1------1-1-1---4-2-1---------------------------------------------|
 --1-1-3-3-3-3---3----------3-------3-1-3-1-0-1---------------------------------|        
 -------------------------------------------------------------------------------|
 -------------------------------------------------------------------------------|
 -------------------------------------------------------------------------------|         

 
00:57
 -------------------------------------------------------------------------------|
 -------------------------------------------------------------------------------|
 --1-1-1-1-1-1-0----0-3-1-0-1-0-------1-1-1-0-1-0-1-0-----0-0-0-3-1-0-1-0-------|        
 -------------------------------3-----------------------------------------3-----|
 -------------------------------------------------------------------------------|
 -------------------------------------------------------------------------------|         

01:17
 -------------------------------------------------------------------------------|
 ------------1-1---------------------4-2-1--------------------------------------|
 --1-1-3-3-3-----3-------1-1-1-3-3-3-------3-3-1-3-1----------------------------|
 -------------------------------------------------------------------------------|
 -------------------------------------------------------------------------------|        
 -------------------------------------------------------------------------------|
 
01:32
 -------------------------1-1----------------------------------------1---1----------------|
 --1-4-4-4-1-4-4------1-4-----4-1----------------1-4-4-1-4-4-----1-4-------4-1------------|
 ---------------------------------3-1------------------------------------------3-3-1-3-1--|
 -----------------------------------------------------------------------------------------|       
 -----------------------------------------------------------------------------------------|
 -----------------------------------------------------------------------------------------|
 

  02:04      
 ------1-1-1-1-------3-1-----1-----------------1----------------------------------|
 --1-1--------4--4-4-----4-4---4-2----1-1-1-2-1---4----4-4-2-1-4-2----------------|
 ---------------------------------------------------------------------------------|
 ---------------------------------------------------------------------------------|        
 ---------------------------------------------------------------------------------|
 ---------------------------------------------------------------------------------|
 

02:24
 --------------------------------------------------------1-----------------------|
 -1-1-4-4-4-2-1----------2-2-2-2-1---2-1-------1-1-4-4-4---1---------------------|
 ---------------3------------------3-------------------------3-3-3-3-1-1---------|
 --------------------------------------------------------------------------------|        
 --------------------------------------------------------------------------------|
 --------------------------------------------------------------------------------|
 

 02:36                  02:39
 ------------------------------------------------1----------------------------------------|
 --1-2===6-5-2-1---------1-4-4-4-1-4-4-------1-4---4-1--------------1-4-4-1-4-4-----------|
 ------------------------------------------------------3-3-1------------------------------|
 -----------------------------------------------------------------------------------------|        
 -----------------------------------------------------------------------------------------|
 -----------------------------------------------------------------------------------------|
 nota= en esos iguales,tienes que deslizar el dedo del traste 2 al 6

				    03:00
 ------1-----1------------------------------------------------------------------|
 --1-4---------4-1--------------------1-1-4-4-2-1-------1-1---------------------|
 -------------------3-3-1-3-1---------------------1---------3-3-3-1-3-----------|
 -------------------------------------------------------------------------------|        
 -------------------------------------------------------------------------------|
 -------------------------------------------------------------------------------|
 

03:07					03:16
 --------------------------------------------------------------1----1----------------|
 --1-1------------------------------------1-4-4-1-4-4------1-4--------4-1------------|
 ------3-1-3-1-3-3-1-3-3-3-1-0--------------------------------------------3-3-1-3-1--|
 ------------------------------3-----------------------------------------------------|        
 ------------------------------------------------------------------------------------|
 ------------------------------------------------------------------------------------|
 

03:29			03:33			    03:36
 ------------1-------------1-3-4-3-1---1------------------1----------------------|
 --1-4-4-4-1---4---------4-----------4----------------1-4---4-1------------------|
 ---------------------------------------------------------------3-3-1------------|
 --------------------------------------------------------------------------------|        
 --------------------------------------------------------------------------------|
 --------------------------------------------------------------------------------|
 


ultima parte de guitarra:

    03:39		   03:43		  
 			 
 ----4-4-4-4-4*6-4-4-4*3----3-3-4-3-3-4-3-1-------------|
 -----------------------------------------------1-------|
 ---------------------------------------------3---------|
 -------------------------------------------------3-----|        
 -------------------------------------------------------|
 -------------------------------------------------------|
 


  03:47				                  03:57
 			 
---4-4-4-4-4*6-4-4-4*3---------3-6-4-3-3-4-3-1----------------------|
 -----------------------------------------------------1-------------|
 --------------------------------------------------3----------------|
 -------------------------------------------------------3-----------|        
 -------------------------------------------------------------------|
 -------------------------------------------------------------------|
Suggest correction
Give kudos to tab author, rate the tab!
1 2 3 4 5
comments
print report bad tab
guest
You may want to rate the tab now too:
select rating
Wanna post a correction for this tab? Suggest correction