Oops, an error
Loading. Please wait.

Véndemelo Bass Tab

7 views 1 this week
no commentswrite comment
1 2 3 4 5
3 more votes to show rating
add to favorites
launch autoscroll
font size
0
reset
guitar tuner
×
Best way to learn
"Véndemelo"
Autoscroll
slow
fast
+/-
esc
set tempo
stop
Bueno, vamos con esta estupenda versión del "Breaking the law"
de los Judas Priest.

La cosa empieza con el riff, que es así:

-----------|---------|---------|---------|---------|-----------
-----------|---------|---------|---------|---------|-----------
---0--2--3-|-0--2--3-|-0--2--3-|-------0-|-------0-|----3--2---
-----------|---------|---------|-1--3----|-1--3----|-3---------

La base que suena con el riff es ésta
(a menos que me equivoque):

--------------|------------|------------|--------------
--------------|------------|------------|--------------
--------------|------------|------------|--------------
---5--5--5--5-|-5--5--5--5-|-5--5--5--5-|-5--5--5--5---
>>>
--------------|------------|------------|--------------
--------------|------------|------------|--------------
--------------|------------|------------|--------------
---1--1--1--1-|-1--1--1--1-|-1--1--1--1-|-1--1--1--1---

Las estrofas son esta movida:

--------------|------------|------------|--------------
--------------|------------|------------|--------------
--------------|------------|------------|-3--3---------
---5--5--5--5-|-5--5--5--5-|-5--5--5--5-|-------3--3---
>>>
--------------|------------|------------|--------------
--------------|------------|------------|--------------
--------------|------------|------------|-3--3--5--5---
---5--5--5--5-|-5--5--5--5-|-5--5--5--5-|--------------

El puente hacia el estribillo es este rollo:

--------------|--------------
--------------|--------------
---7--7--7--7-|-7--7--7--7---
--------------|--------------
>>>
--------------|------------|------------|--------------
--------------|------------|------------|--------------
---8--8--8--8-|-8--8--8--8-|-8--8--8--8-|-8--8--8--8---
--------------|------------|------------|--------------
>>>
--------------|------------|------------|--------------
--------------|------------|------------|--------------
---7--7--7--7-|-7--7--7--7-|-7--7--7--7-|-7--7--7--7---
--------------|------------|------------|--------------
>>>
--------------|------------|------------|--------------
--------------|------------|------------|--------------
---8--8--8--8-|-8--8--8--8-|-8--8--8--8-|-8--8--8--8---
--------------|------------|------------|--------------
>>>
--------------|------------|-------------
--------------|------------|-------------
---7--7--7--7-|-7--7--7--7-|-7>>>>>>>1---
--------------|------------|-------------

Estribillo:

--------------|------------|------------|--------
--------------|------------|------------|--------
--------------|------------|------------|--------
---5--5--5--5-|-5--5--5--5-|-5--5--5--5-|-3--3---

La parte esa de "Por tu dios, véndemelo":

--------------|------------|------------|--------------
--------------|------------|------------|--------------
---5--5--5--5-|-5--5--5--5-|-8--8--8--8-|-3--3--3--3---
--------------|------------|------------|--------------

Final:

-------
-------
-------
---5---

...Y me paece a mí que na más.
Suggest correction
Give kudos to tab author, rate the tab!
1 2 3 4 5
comments
print report bad tab
guest
You may want to rate the tab now too:
select rating
Wanna post a correction for this tab? Suggest correction