Oops, an error
Loading. Please wait.

Sangre Española Tab

112 views 1 this week
no commentswrite comment
1 2 3 4 5
3 more votes to show rating
add to favorites
launch autoscroll
font size
0
reset
how to read this tab
guitar tuner
×
Best way to learn
"Sangre Española"
Autoscroll
slow
fast
+/-
esc
set tempo
stop
1---5--7---8---7---8----10--10---10---8--8--7--7-----------
2-------------------------------------------------10---9---
3----------------------------------------------------------
4----------------------------------------------------------
5----------------------------------------------------------
6----------------------------------------------------------

1----------8--12---12---10---10--8---8---7----7----5----4---
2------10--------------------------------------------------
3---9-------------------------------------------------------
4-----------------------------------------------------------
5-----------------------------------------------------------
6-----------------------------------------------------------

1---8--7---8------7---5----7------5--4---5---4-----------------
2--------------5---------------5----------------6--5-5---3--3--
3--------------------------------------------------------------
4--------------------------------------------------------------
5--------------------------------------------------------------
6-------------------------------------------------------------

1-------------------------------5---7---8---7----5------------
2---3-----------------5--6--8------------------------8--6---5-
3------5--5---------7-----------------------------------------
4-------------------------------------------------------------
5-------------------------------------------------------------
6------------------------------------------------------------

1-------------------------------------------------------
2----8--5---6-------------------------------------------
3--------------------4--5----7--5--4--------------------
4-------------------------------------6--7--------------
5-------------------------------------------------------
6-------------------------------------------------------

          jomecho@
Suggest correction
Give kudos to tab author, rate the tab!
1 2 3 4 5
comments
print report bad tab
guest
You may want to rate the tab now too:
select rating
Wanna post a correction for this tab? Suggest correction