Oops, an error
Loading. Please wait.

Cutral-Có Tab

29 views 3 this week
no commentswrite comment
1 2 3 4 5
3 more votes to show rating
add to favorites
×
Save as Personal and add changes to this tab that will be seen only by you. Learn more ›
×
You can save this tab as Personal to edit and correct it or add notes. All changes will be seen only by you. Learn more »
save as personal
new!
launch autoscroll
font size
0
reset
how to read this tab
guitar tuner
Autoscroll
slow
fast
+/-
esc
set tempo
stop
bueno esta es la intro digamos y despues 
es todo igual con power chords y estirada
de la tercer y cuarta cuerda hasta que se hace una pausa y todo igual

E|--7--------7--------------|--7--------7--------------|
B|-----8--------10--7-------|-----8--------10--7-------|
G|--------9------------9----|--------9------------9----|
D|---------------------9----|---------------------9----|
A|--------------------------|--------------------------|
E|--------------------------|--------------------------|


--7--------7--------------|--7--------7--------------|
-----8--------10--7-------|-----8--------10--7-------|
--------9------------9----|--------9------------9----|
---------------------9----|---------------------9----|
--------------------------|--------------------------|
--------------------------|--------------------------|


--7--------7--------------|--7--------7--------------|
-----8--------10--7-------|-----8--------10--7-------|
--------9------------9----|--------9------------9----|
---------------------9----|---------------------9----|
--------------------------|--------------------------|
--------------------------|--------------------------|


--7--------7--------------|--7--------7--------------|-----------------------|
-----8--------10--7-------|-----8--------10--7-------|------------------4----|
--------9------------9----|--------9------------9----|------------------4----|
---------------------9----|---------------------9----|--2------5--4--5--4----|
--------------------------|--------------------------|--2------5--4--5--2----|
--------------------------|--------------------------|--0------3--2--3-------|

doce veces hasta el estribillo y des pues otras doce mas y asi hasta el final

-----------------------|-----------------------|-----------------------|
------------------4----|------------------4----|------------------4----|
------------------4----|------------------4----|------------------4----|
--2------5--4--5--4----|--2------5--4--5--4----|--2------5--4--5--4----|
--2------5--4--5--2----|--2------5--4--5--2----|--2------5--4--5--2----|
--0------3--2--3-------|--0------3--2--3-------|--0------3--2--3-------|

saludos agreguenme al msn soy muy fanatico de este grupo y estoy trabajando para
tener el gp4 de este mismo tema
dentro de poco subo a annabel
Suggest correction
Give kudos to tab author, rate the tab!
1 2 3 4 5
comments
print report bad tab
guest
Wanna post a correction for this tab? Suggest correction