Oops, an error
Loading. Please wait.

Añoranzas Tab

431 views 12 this week
no commentswrite comment
1 2 3 4 5
3 more votes to show rating
add to favorites
launch autoscroll
font size
0
reset
how to read this tab
guitar tuner
Autoscroll
slow
fast
+/-
esc
set tempo
stop
Help us to improve Ultimate-Guitar.com Take our survey!
×
Intro:

E7 Am (x5)

E-------------0-0-------------0-0--------------
B--0-1-3-0-3-1-1---0-1-3-0-3-1-1---0-1-3-0-3-1-

Punteo que asimila al acordeón,
acompaña el ritmo de las estrofas
durante el recitado.                                Recitado:

E-8-8-8--8-8-8-8--8-8-8-8--8-7-8-               Que tiene [ch]A[/ch] chacarera!!??
B--------------------------------               Que tiene que hace alegrar!!??
G-9-9-9--9-9-9-9--9-9-9-9--9-7-9-               A los viejos zapatear,
                                                los mudos la tararean,
E-5-5-5-5-5-5--5-7-5-7-5-7-4-5-                 y los sordos se babean
B------------------------------                 cuando la sienten tocar.
G-5-5-5-5-5-5--5-7-5-7-5-7-4-5-
                                                Es tristeza, es alegría
E-5-5-5-5-5-5--5-7-5-7-5-7-4-5-                 es una danza, es canción
B------------------------------                 es alma de una región
G-5-5-5-5-5-5--5-7-5-7-5-7-4-5-                 que evoca [ch]A[/ch] raza mía,
                                                ella es rara melodía
E-------------0-0-------------0-0-------------- nacida del corazón.
B--0-1-3-0-3-1-1---0-1-3-0-3-1-1---0-1-3-0-3-1-
                                                Su cuna fue un humilde rancho
E----8-8-8-8--8-8-8-8-7-8--                     y un bombo la bautizo,
B--------------------------                     un paisano la cantó
G-9-9---9------9------7-9--                     con versos improvisados,
                                                salavina ha reclamado
E-5-5-5-5-5-5--5-7-5-7-5-7-4-5-                 diciendo que allá nació.
B------------------------------
G-5-5-5-5-5-5--5-7-5-7-5-7-4-5-                 Ella nació como yo
                                                en los pagos del mistol
E-5-5-5-5-5-5--5-7-5-7-5-7-4-5-                 donde quema mucho el sol,
B------------------------------                 se pita cigarro en chala,
G-5-5-5-5-5-5--5-7-5-7-5-7-4-5-                 donde se cantan vidalas
                                                y el ser criollo es un honor.
D----0-0-2-2-----0-0-2-2-----0-0--
A-2-3-2-3-3---2-3-2-3-3---2-3-2-3-              Chacarera,chacarera
                                                melodía montará,
B-5-5-5--5-5-5-5--5-5-5-5--5-3-5-               sos arruyo de torcaza,
G-5-5-5--5-5-5-5--5-5-5-5--5-4-5-               bramido de tigre y puma,
                                                sos más criolla que ninguna
B-1-1-1-1-1-1--1-3-1-3-1-3-0-1-                 y aquí te quiero cantar.
G-2-2-2-2-2-2--2-4-2-4-2-4-0-2-

B-1-1-1-1-1-1--1-3-1-3-1-3-0-1-
G-2-2-2-2-2-2--2-4-2-4-2-4-0-2-

E-------------0-0-------------0-0--------------
B--0-1-3-0-3-1-1---0-1-3-0-3-1-1---0-1-3-0-3-1-

               Primera:

               C                                    G7   C
               Cuando salí de Santiago todo el camino lloré
                      Am                          E7    Am
               lloré sin saber porqué pero yo les aseguro
                   F                              E7      Am
               que mi corazón es duro pero aquel día afloje.

               E7 Am (x3)

               E-------------0-0-------------0-0--------------
               B--0-1-3-0-3-1-1---0-1-3-0-3-1-1---0-1-3-0-3-1-

               Dejé aquel suelo querido y el rancho donde nací
               donde tan feliz viví alegremente cantando

               D----0-----
               A-2-3-2----
               E------3-1-

               en cambio vivo llorando igualito que el crespín.

               A-0------
               E--3-1-0-

               E7 Am (x3)

               E-------------0-0-------------0-0--------------
               B--0-1-3-0-3-1-1---0-1-3-0-3-1-1---0-1-3-0-3-1-

               Los años ni las distancias jamás pudieron lograr
               de mi memoria apartar y hacer que te eche al olvido
               ay mi Santiago querido añoro tu quebrachal.

               Mañana cuando yo muera si alguien se acuerda de mí
               paisanos les vua' pedir si quieren darme la gloria
               y toquen a mi memoria la doble que canto aquí.

               Segunda:

               E7 Am (x5)

               E-------------0-0-------------0-0--------------
               B--0-1-3-0-3-1-1---0-1-3-0-3-1-1---0-1-3-0-3-1-

               En mis horas de tristeza siempre me pongo a pensar
               como pueden olvidar algunos de mis paisanos
               rancho, padre, madre, hermano con tanta facilidad.

               E7 Am (x3)

               E-------------0-0-------------0-0--------------
               B--0-1-3-0-3-1-1---0-1-3-0-3-1-1---0-1-3-0-3-1-

               Santiagueño no ha de ser el que obre de esa manera
               despreciar la chacarera por otra danza importada

               D----0-----
               A-2-3-2----
               E------3-1-

               eso es verla mancillada a nuestra raza campera.

               A-0------
               E--3-1-0-

               E7 Am (x3)

               E-------------0-0-------------0-0--------------
               B--0-1-3-0-3-1-1---0-1-3-0-3-1-1---0-1-3-0-3-1-

               La otra noche a mis almohadas mojadas las encontré
               así ignoro si soñé o es que despierto lloraba
               o en lontananza miraba el rancho aquel que dejé.

               Tal vez en el campo santo no haya lugar para mí
               paisanos les vua' pedir que cuando llegue el momento
               tírenmen en campo abierto pero allá donde nací.
Suggest correction
Give kudos to tab author, rate the tab!
1 2 3 4 5
comments
print report bad tab
guest
You may want to rate the tab now too:
select rating
Wanna post a correction for this tab? Suggest correction