Oops, an error
Loading. Please wait.
262 views 1 this week
no commentswrite comment
1 2 3 4 5
3 more votes to show rating
add to favorites
launch autoscroll
font size
0
reset
how to read this tab
guitar tuner
×
Best way to learn
"Eterno Amor"
Autoscroll
slow
fast
+/-
esc
set tempo
stop
e|-----5--4-------------5--4-----------------------------------|
B|---5------5--7------5------5--7---5-5-5-7--5---3-3--2-3--5---|
G|-------------------------------------------------------------|
D|-------------------------------------------------------------|
A|-------------------------------------------------------------|
E|-------------------------------------------------------------|


e|-----5--4-------------5--4-----------------------------------|
B|---5------5--7------5------5--7---5-5-5-7--5---3-3--2-3--5---|
G|-------------------------------------------------------------|
D|-------------------------------------------------------------|
A|-------------------------------------------------------------|
E|-------------------------------------------------------------|


e|-------------------0---5-------------------------------------|
B|-----3-3---------2-------------------------------------------|
G|---------2--4--2---------------------------------------------|
D|-------------------------------------------------------------|
A|-------------------------------------------------------------|
E|-------------------------------------------------------------|
Suggest correction
Give kudos to tab author, rate the tab!
1 2 3 4 5
comments
print report bad tab
guest
You may want to rate the tab now too:
select rating
Wanna post a correction for this tab? Suggest correction