Oops, an error
Loading. Please wait.

Piel Chaqueña Tab

76 views 1 this week
no commentswrite comment
1 2 3 4 5
3 more votes to show rating
add to favorites
launch autoscroll
font size
0
reset
how to read this tab
guitar tuner
×
Best way to learn
"Piel Chaqueña"
Autoscroll
slow
fast
+/-
esc
set tempo
stop
Am                   G                        Am
1-----7-8-8-8-8-7----7-----------7-7-7-7---------
2--10-------------10------8-8-10---------10-8-10-
3------------------------------------------------
4------------------------------------------------
5------------------------------------------------
6------------------------------------------------


Am                   G                        Am
1-----7-8-8-8-8-7----7-----------7-7-7-7---------
2--10-------------10------8-8-10---------10-8-10-
3------------------------------------------------
4------------------------------------------------
5------------------------------------------------
6------------------------------------------------


          G           Am          G           Am
1--8-7----7----7-----------8-7----7----7------0-------
2------10--------10-8-10-------10--------10-8-1-1-----
3-----------------------------------------------2-2---
4-------------------------------------------------2-2-
5---------------------------------------------------0-
6-----------------------------------------------------
Suggest correction
Give kudos to tab author, rate the tab!
1 2 3 4 5
comments
print report bad tab
guest
You may want to rate the tab now too:
select rating
Wanna post a correction for this tab? Suggest correction