Oops, an error
Loading. Please wait.

Barcos De Cristal Tab

124 views 1 this week
no commentswrite comment
1 2 3 4 5
3 more votes to show rating
add to favorites
×
Save as Personal and add changes to this tab that will be seen only by you. Learn more ›
×
You can save this tab as Personal to edit and correct it or add notes. All changes will be seen only by you. Learn more »
save as personal
new!
launch autoscroll
font size
0
reset
how to read this tab
guitar tuner
Autoscroll
slow
fast
+/-
esc
set tempo
stop
Afinación:
E:
B:
G:
D:
A:
E:


Introduccion:
-----------0-------------0-------------0-0---------1---1p0-0-1-3-1-------
3---1p0-1-3--3---1p0-1-3---3---2p0-2-3-----3--3-----------3--------3--3--
0---0--------0---0-----------2-2-------------2--2----2---------------2--2
--2------------2------------------------(2)2--2---0-------------0--0--0-
3------------3-------------0---0---------0-------------------------------
-------------------------------------------------------------------------


    ^
3-1-0---------------------1-------------1----------0---------0---------
2-----3--2--------------3-------------3--------------3-2--------2--2---
3-----------3--2--0--2--2---2-0---0-2-2---2-0---2--------2-2------2--2-
0-----------------------3-------3-----3-------3----2------2--2---2--2--
---------------------------------------------------0---------0---------
-----------------------------------------------------------------------


3--------3--------3-1--------0-------0-------0-------0----------------|
3-3--3------3---3------1--1----0--0----0--0----0--0----0--0-----------|
----3----------3----2----2--2----1-------1-(1)--1-------1-(1)-------|
---5----------5---------3--3----2---2---2-(2)--2---2---2-(2)--------|
5-------5--------5--3--------2-------2-------2-------2----------------|
----------------------------------------------------------------------|


Verso:
-----------0-------------0-------------0-0----------1---1p0-0-1-3-1-------
3---1p0-1-3--3---1p0-1-3---3---2p0-2-3------3--3-----------3--------3--3--
0---0--------0---0-----------2-2--------------2--2----2---------------2--2
--2------------2------------------------(2)-2--2---0-------------0--0--0-
3------------3-------------0---0---------0--------------------------------
--------------------------------------------------------------------------
En nuestra...                      ...Lugar...  ...Dónde con violencia...

  ^
3-1-0---------------------1-------------1----------0---------0----------|
2-----3--2--------------3-------------3--------------3-2--------2--2----|
3-----------3--2--0--2--2---2-0---0-2-2---2-0---2--------2--2-----2--2--|
0-----------------------3-------3-----3-------3----2------2--2---2--2---|
---------------------------------------------------0---------0----------|
------------------------------------------------------------------------|
Se enrulla como...  amapola yo al tocar...  ...estrellas hechas de sal


[ch]Gm[/ch]
Otras son de cristal
[ch]Dm[/ch]
otras son de cristal
[ch]E           LA [/ch]
otras son de cristal


Verso:
Dónde gira el huracán
enojado como un Dios
con poder de levantar
los cuatro vientos y azotar la plaza
y entrar en tu casa
y poner las cortinas de un golpe a volar


[ch]Gm[/ch]
Mis barcos son de cristal
[ch]Dm[/ch]
Mis barcos son de cristal
[ch]E             LA [/ch]
Mis barcos son de cristal


Coda:     x3         ^
---------------|-----|
-3-------------|--3--|
-2--2-0---0-2--|--2--|
-3-3----3------|--3--|
---------------|-----|
---------------|-----|


Bueno, esta es la primera vez que subo una cancion a internet
asique pido que si encuentran algo malo o que no suena bien
me digan para arreglarlo

eso
espero que les guste
Suggest correction
Give kudos to tab author, rate the tab!
1 2 3 4 5
comments
print report bad tab
guest
Wanna post a correction for this tab? Suggest correction