Oops, an error
Loading. Please wait.

Diamante Tab

79 views 1 this week
no commentswrite comment
1 2 3 4 5
3 more votes to show rating
add to favorites
launch autoscroll
font size
0
reset
how to read this tab
guitar tuner
Autoscroll
slow
fast
+/-
esc
set tempo
stop
Cejilla (capodastro) en el 2do espacio


E|---------------------------------------------------------------------|
B|-----------------------------0---------1-0---------------------------|
G|---------0---------2-0-----0---2-----2--------2-0---4-----2-0---0----|
D|-2-----2---4-----4-------2---------2--------------4-----------4---2--|
A|-----2---------2-----------------------------------------------------|
E|---------------------------------------------------------------------|


     Em
Hace tiempo que oigo los diamantes
   C
elegantes que ocupan el espacio
       D
muy despacio cuando canta quien bien sabe
        G                      B7
brillan ojos en la casa como astros en la nave
        Em                                   C      D
y en el suave parpadear de lo que pasa en esta tardeee
  B7                  Em
oooooh (no puede ser mejor)


      Em
Hace tiempo que veo los diamantes
     C
como antes van flotando los cristales
      D
es un arte, es un vino y es un baile
      G                              B7
un licor de las estrellas, y como a ellas te hace bella
       Em                         C                D
la distancia alrededor de lo que pasa entre los doooos
 B7                     Em
ooooh, no puede ser mejooor

 Bm        A         Em  Bm
Ooooh, no puede ser mejor
           A         Em  Bm
Ooooh, no puede ser mejor
           A         Em  Bm
Ooooh, no puede ser mejor
           A         Em  Bm
Ooooh, no puede ser mejor


E|---------------------------------------------------------------------|
B|-----------------------------0---------1-0---------------------------|
G|---------0---------2-0-----0---2-----2--------2-0---4-----2-0---0----|
D|-2-----2---4-----4-------2---------2--------------4-----------4---2--|
A|-----2---------2-----------------------------------------------------|
E|---------------------------------------------------------------------|


      Em
Hace tiempo que me hablan los diamantes
         C
son brillantes sus palabras me iluminan
         D
me dan fuerza, me dan fiebre y me dan vida
        G                          B7
y tu mirada que me anima es el diamante principal
            Em                          C
en esta historia que contar cuando las cosas tienen alas
        D
vuelan sobre, la tarde y la mañana
      G                      B7                    Em
y mi noche fugitiva y las ganas de volar hacia tu vida
 C   D          B7                 Em
vidaaaaa,  ooooh, no puede ser mejooor

 Bm        A         Em  Bm
Ooooh, no puede ser mejor
           A         Em  Bm
Ooooh, no puede ser mejor
           A         Em  Bm
Ooooh, no puede ser mejor
           A         Em  Bm
Ooooh, no puede ser mejor


E|---------------------------------------------------------------------|
B|-----------------------------0---------1-0---------------------------|
G|---------0---------2-0-----0---2-----2--------2-0---4-----2-0---0----|
D|-2-----2---4-----4-------2---------2--------------4-----------4---2--|  x2
A|-----2---------2-----------------------------------------------------|
E|---------------------------------------------------------------------|
Suggest correction
Give kudos to tab author, rate the tab!
1 2 3 4 5
comments
print report bad tab
guest
You may want to rate the tab now too:
select rating
Wanna post a correction for this tab? Suggest correction