Oops, an error
Loading. Please wait.

El Viejo Comunista Tab

228 views 1 this week
no commentswrite comment
1 2 3 4 5
3 more votes to show rating
add to favorites
launch autoscroll
font size
0
reset
how to read this tab
guitar tuner
×
Best way to learn
"El Viejo Comunista"
Autoscroll
slow
fast
+/-
esc
set tempo
stop
Cejillo en el 2do espacio.


Éste es un "G7M", al inicio se repite varias veces
(escuche la canción).

       "Intro"
E|-----7--------7---|
B|-----7--------7---|
G|-----7--------7---|
D|--5--------5------|
A|--------5---------|
E|------------------|


"Arpegio N°1"

   G7              F#°                                Em      C
E|-----7-------7-------5--------0-------3-------3------3----0-----0-----0-
B|-----7-------7-------4--------4-------0-------0------0----0-----1-----1-
G|-----7-------7-------5--------5-------4-------4------0----0-----0-----0-
D|--5-------5-------4------------------------0----------------------------
A|-------5-------5--------0--7-----3-----------------3-----2----3-----2---
E|------------------------------------0----0------0------0-----0----3-----


              Bm
-----0----0-----2-----2------2------2----|
-----1----1-----3-----3------3------3----|
-----0----0-----4-----4------4------4----|
-----------------------------------------|
---3----3-----2-----2------2------2------|
--3----3----3-----2------2------2-----2--|

y se vuelve al inicio del
"Arpegio N°1". Cuando se
repite la última frase cantada
se usa el "Arpegio N°2" que
viene a continuación:


"Arpegio N°2"

    Em           C            Bm
E|----0------0-----0------0------2-----2----2----2----|
B|----0------0-----1------1------3-----3----3----3----|
G|----0------0-----0------0------4-----4----4----4----|
D|---------2------------------------------------------|
A|---------------3------3------2-----2-----2----2-----|
E|--0----0-----0------3------3-----2-----2----2----2--|


"Arpegio N°3"

    D#°                     Em                      C
E|----2-----2-----2-----2------0-----0-----0----0-----0-----0----0-----0---
B|----1-----1-----1-----1------0-----0-----0----0-----1-----1----1-----1---
G|----2-----2-----2-----2------0-----0-----0----0-----0-----0----0-----0---
D|--1-----1-----1-----1------------2-----0---------------------------------
A|------0-----0-----0-----0--------------------2----3-----3-----3----3-----
E|--------------------------0----0-----0-----0----0-----3-----3----3-----3-


  Bm
----2-----2------2------2----|
----3-----3------3------3----|
----4-----4------4------4----|
-----------------------------|
--2-----2------2------2------|
------2------2------2-----2--|


"Final"

   Em                      C
E|-----0-----0-----0----0-----0-----0----0-----0---
B|-----0-----0-----0----0-----1-----1----1-----1---
G|-----0-----0-----0----0-----0-----0----0-----0---
D|---------2-----0---------------------------------
A|---------------------2----3-----3-----3----3-----
E|--0----0-----0-----0----0-----3-----3----3-----3-


  Bm
----2-----2------2------2----|
----3-----3------3------3----|
----4-----4------4------4----|
-----------------------------|
--2-----2------2------2------|
------2------2------2-----2--|


Bueno, y esa es la onda: bajo, las 3 primeras, bajo, bajo, las tres
primeras, bajo.
Ése es el patrón que tiene toda la canción, no haré el tab del final porque
ya me duele la espalda, je...
Saludos cordiales, y espero q les sirva!

PD: Recuerden que se usa cejillo en el 2do espacio y desde ahí se empieza a
contar hacia arriba...


"Arpegio N°1"
Un viejo que fuera comunista
se sienta a fumar la tarde entera.

"Arpegio N°1"
Mientras buena lluvia cae afuera
con voz desnuda, el vejo piensa:

"Arpegio N°3"
por qué coinciden en su ventana
palomas grises con la pena que fumara.

"Arpegio N°2"
palomas grises con la pena que fumara.

Coro: Lalalala ("Arpegio N°1")

"Arpegio N°1"
Torna sus ojos a un día lejos,
cuando un libro, un beso, una muchacha,
un pensamiento.

"Arpegio N°2"
Cuando un libro, un beso, una muchacha,
un pensamiento.

"Arpegio N°3"
Cree que ya nada lo sorprende
que se curó de espanto, desgastó el llanto.

"Arpegio N°2"
Se curó de espanto, desgastó el llanto.

Coro: Lalalala ("Arpegio N°1")

"Arpegio N°1"
Recordó canciones que cantaba
y conversaciones con amigos hasta el alba.

"Arpegio N°2"
Y conversaciones con amigos hasta el alba.

"Arpegio N°1"
Recordó la esquina de su casa
cuando dijo adiós y vio a su madre que lloraba.

"Arpegio N°2"
Cuando dijo adiós y vio a su madre que lloraba.

"Arpegio N°3"
Y ahora en sus ojos también llueve,
pues le sorprende que aún le duelen

    C        Am         G
los años, la vida, su amor.

    C        Am         G
los años, la vida, su amor.

Bm - C
Oooohh!

        Bm
Aún le duelen.

"Final"
Oooooooohh!

"Final"
Oooooooohh!

se repite varias veces :)

Acordes:

    G7     F#°  Em     C    Bm    D#°   Am     G
E|---7--|--5--|--0--|--0--|--2--|--2--|--0--|--3--|
B|---7--|--4--|--0--|--1--|--3--|--1--|--1--|--0--|
G|---7--|--5--|--0--|--0--|--4--|--2--|--2--|--0--|
D|---5--|--4--|--2--|--2--|--4--|--1--|--2--|--0--|
A|---5--|-----|--2--|--3--|--2--|--0--|--0--|--2--|
E|------|-----|--0--|--3--|--2--|-----|--0--|--3--|
Suggest correction
Give kudos to tab author, rate the tab!
1 2 3 4 5
comments
print report bad tab
guest
You may want to rate the tab now too:
select rating
Wanna post a correction for this tab? Suggest correction