Oops, an error
Loading. Please wait.

Hablar De Ti Tab

version 1
version 1

Whole song

Interactive

167 views 3 this week
no commentswrite comment
1 2 3 4 5
3 more votes to show rating
add to favorites
launch autoscroll
font size
0
reset
how to read this tab
guitar tuner
×
Best way to learn
"Hablar De Ti"
Autoscroll
slow
fast
+/-
esc
set tempo
stop
Hola compañeros :) en internet no existe ninguna tablatura completa
de esta hermosa canción de manuel, así que me atreví a hacer una.
Creo que está correcta, pero si consideran que tiene algún error, por favor
manifiéstense :) Mi correo es vkgoboo@
Un saludo sonriente a todos

Intro:  [ch]A[/ch]


|--9------------9--------|---9-----------9-------||
|--------0------------0--|---------0-------------||
|------------------------|-----------------------||  x2
|------7------------7----|------7-----------7----||
|--0---------0-----------|-0----------0----------||
|------------------------|-----------------------||

durante el primer verso se toca la intro:

 INTRO
Subiendo el cerro el frío se adueñó de mi actitud y mi


     [ch]Em9[/ch]
   gesto,

|--------------0-----------------------0------||
|--7-----0------------0---7------0------------||
|---------------------------------------------||  x2
|-----7-------------7--------7------------7---||
|---------------------------------------------||
|--0---------0------------0---------0---------||


  [ch]A                      LA/SI[/ch]

cruzando       mis       brazos       sobre el

|--0-----------0--------|--0----------0---------|
|--------2-----------2--|-------2-----------2---|
|-----2-----------2-----|-----2----------2------|
|-----------------------|-----------------------|
|--0---------0----------|--2--------2-----------|
|-----------------------|-----------------------|


 [ch]A/MI[/ch]

pecho   en la noche como un niño

|--0---------0--------0--------0------||
|-------2---------2-------2-----------||
|-----2---------2-------2---------2---||
|--2------------------2---------------||
|-------------------------------------||
|----------0-----------------0--------||


     [ch]D[/ch]
enfermo.

|--2-----------0---------|--5----------0--------|
|-(3)-----3-----------3--|--------3----------3--|
|-(2)--2----------2------|-----2----------2-----|
|--0---------0-----------|--0--------0----------|
|------------------------|----------------------|
|------------------------|----------------------|


|--2---------2------|--2---------2-----||
|------3---------3--|-------3----------||
|----2---------2----|----2----------2--||
|--0-------0--------|--0-------0-------||
|-------------------|------------------||
|-------------------|------------------||


   [ch]D                   RE/FA#[/ch]
   Despeinaba  el      viento       tu

|--2----------2-------|--2--------2-------|
|-------3----------3--|------3--------3---|
|-----2---------2-----|----2--------2-----|
|--0-------0----------|--4------4---------|
|---------------------|-------------------|
|---------------------|-------------------|


Re/Mim7           [ch]D[/ch]

salud                   y nos ladraba un

--0-------0-------|--2---------2----||
------3--------3--|------3----------||
----0-------0-----|----2---------2--||
--2------2--------|--0-------0------||
------------------|-----------------||
------------------|-----------------||


[ch]Em[/ch]
perro,
|--0-----------0-------|--0----------0-------||
|-(0)----0-------------|-------0---------0---||
|-(0)--0---------------|-----0---------0-----||
|-(2)-------------0h2--|---------------------||
|-(2)------------------|---------------------||
|--0--------0----------|--0--------0---------||


    [ch]A                    LA/SI[/ch]
    y   todos    los      barcos      con   su
|--0-----------0--------|--0----------0---------|
|--------2-----------2--|-------2-----------2---|
|-----2-----------2-----|-----2----------2------|
|-----------------------|-----------------------|
|--0---------0----------|--2--------2-----------|
|-----------------------|-----------------------|

 [ch]A/MI[/ch]
 luz                 alumbraban tu
|--0---------0--------0--------0------||
|-------2---------2-------2-----------||
|-----2---------2-------2---------2---||
|--2------------------2---------------||
|-------------------------------------||
|----------0-----------------0--------||

CORO:

   [ch]G[/ch]
   pelo.                                      Yo sólo
|-----------------|-------------------||
|---------0-------|------0-----0------|| x2
|----0-------(0)*-|----0-----0------0-||
|------0----------|---------------0---||
|-----------------|--2-----4----------||
|--3--------3-----|-------------------||

*Los números entre paréntesis corresponden
a notas ''opcionales'' que dan mayor ritmo
al arpegio.

  [ch]A[/ch]
  quiero                                         que recuerdes
|-----------------|-----------------------||
|--------2--------|-------0-------0-------||  x2
|----2-------(2)--|----2--------2------2--||
|------2----------|----------0-------2----||
|--0--------0-----|--4--------------------||
|-----------------|-----------------------||

  [ch]Bm[/ch]
  eso,
|------------------|-------------------------||
|---------3--------|-------3-------3---------||  x2
|-----4--------(4)-|----4-------4---------4--||
|-------4----------|-------------------0-----||
|--2---------------|--2-------4--------------||
|------------2-----|-------------------------||

    *Aquí se toca la forma correspondiente a cada acorde:

             [ch]G                   LA[/ch]
que fui un pasajero allá entre tus sueños,

             [ch]G[/ch]
que fui un pasajero

INSTRUMENTAL: Sol - La - Sol - La


  [ch]A[/ch]
  Porque hablar de ti es desterrarse
|-------------------|-----------------||
|--2---------2------|--2---------2----||
|-------2---------2-|-------2---------||
|-----2---------2---|----2---------2--||
|--0-------0--------|--0-------0------||
|-------------------|-----------------||


Aquí comienza todo de nuevo, con los mismos acordes
y arpegios, con algunos cambios bien fáciles de sacar
de oído :)
Suggest correction
Give kudos to tab author, rate the tab!
1 2 3 4 5
comments
print report bad tab
guest
You may want to rate the tab now too:
select rating
Wanna post a correction for this tab? Suggest correction