Oops, an error
Loading. Please wait.

Para Amarnos Más Tab

41 views 1 this week
no commentswrite comment
1 2 3 4 5
3 more votes to show rating
add to favorites
launch autoscroll
font size
0
reset
how to read this tab
guitar tuner
Autoscroll
slow
fast
+/-
esc
set tempo
stop
Help us to improve Ultimate-Guitar.com Take our survey!
×
q onda hermanos ps aki les dejo sta rola, es la version en
vivo desde el teatro metropolitan, ai se la chutan, sta facil
y esta completa ojala les sirva, se la kiero dedicar a

            "ITZEL GUADALUPE ORTIZ DELGADILLO"

"Para amarnos mas nos juramos juntos
que aunque la vida pase los ríos corran
y los pájaros emigren siempre habrá un buen día
para amarnos mas"


INTRO: D A G D A G A  X 2
D---------------------------------------------------------
G-----2-----2----------2-----2-----------2-----2----------
B----3-----3----------3-----3-----------3-----3-----------
e-0-2---0-2---0-2--0-2---0-2----0-2--0-2---0-2----0-2-----

     X 2
D-------------I--------------
G-------------I--------------
B----3--------I------3-0-2---
e-0-2--2-5----I--0h2---------


 D/D9/D          Bm
Juntos, la inmensidad
          G          F#
Un mundo nuestra casa chica
                Bm
el tiempo no importa
                              E
por que siempre habrá un buen día
              A
Para amarnos mas

   D/D9/D            Bm
Juntos, para inventar
             G                  F#
a no aburrirnos, desafiar las horas
                  Bm                 E
de un futuro incierto que solo nos sirve
              A
Para amarnos mas


CORO
              D                 Bm
Para amarnos mas nos juramos juntos
               Em            A
que aunque la vida pase los ríos corran
                F#m                         Bm
y los pájaros emigren siempre habrá un buen día
             Em   A
para amarnos mas

            D                  Bm
Para amarnos mas basta que te mire
            Em                      A
basta que te rose bastan nuestros cuerpos
             Bm       G
húmedos y tibios para amarnos mas
F#m            Em                G   A
para amarnos mas, para amarnos mas


PUENTE:D A G D A G A

D---------------------------------------------------------
G-----2-----2----------2-----2-----------2-----2----------
B----3-----3----------3-----3-----------3-----3-----------
e-0-2---0-2---0-2--0-2---0-2----0-2--0-2---0-2----0-2-----


D--------------------------
G--------------------------
B----3-------------3-0-2---
e-0-2--2-5-----0h2---------


   D/D9/D         Bm
Juntos la eternidad
         G               F#
dos soledades un imán perfecto
          Bm              E
casi el egoísmo solo para amarnos
              A
para amarnos mas

CORO:


    E A D G B E
D9  X 0 0 2 3 0
Suggest correction
Give kudos to tab author, rate the tab!
1 2 3 4 5
comments
print report bad tab
guest
You may want to rate the tab now too:
select rating
Wanna post a correction for this tab? Suggest correction