Oops, an error
Loading. Please wait.

Quédate Chords

17 views 1 this week
no commentswrite comment
1 2 3 4 5
3 more votes to show rating
add to favorites
×
Save as Personal and add changes to this tab that will be seen only by you. Learn more ›
×
You can save this tab as Personal to edit and correct it or add notes. All changes will be seen only by you. Learn more »
save as personal
new!
launch autoscroll
font size
0
reset
transpose
0
reset
simplify chords
display chords
guitar tuner
Autoscroll
slow
fast
+/-
esc
set tempo
stop
Strumming
There is no strumming pattern for this song yet. and get +5 IQ
Dm               G7      Am         Dm        G7               Am
Ilusiones echando raíces,  todo puede volver a empezar ,

Dm                G                  Am         F                  G           Am
me alimentan recuerdos felices,   la verdad no te puedo olvidar

Dm                             Am                Dm              G         Am
Y las horas caminan despacio  Y la duda me quiere matar,

Dm                               G7            Am
Mi refugio se encuentra en tus brazos,

F                      G7      Am        F                   G          Am
Dale un beso a mi  soledad? Dale un beso a mi soledad

CORO

C                               G                           F           Dm        Am
Quédate junto A E toda la eternidad  necesito de  tu  libertad

C                                      G                    F                          G     Am
No te apagues mi luz no me dejes atrás, que me pierdo si tu te vas


Dm                  G           Am     Dm               G       Am
Han caído las últimas hojas,   en el árbol de mi corazón

Dm                            G             Am         F             G         Am
Aunque se que el inverno se asoma  a...  lo lejos escucho tu voz


1er Solo guitarra
(bis)
e----------------------------------------------------------------
b-------------17---16---14-------14--------------------------
g------------------------------------------16---13-------------

CORO (bis)

2° solo de guitarra
e--------------------------------------------|---------9-7--------------7---------------- -|
b---------------------------11-9-7---------|--7-9--------9----9~10---9--9~10--9--7-|
g------9-9-9----13-11-------------9-7-9-|----------------------------------------------|
d---9~--------------------------------------|----------------------------------------------|


e-------------------------------------------------------------------|
b----- 9~-9~-7-------12--9-7-----------------10~/12-10--|
g-----------------7-8-------------9--7--8-10------------------|
d------------------------------------------------------------------|

CORO(bis)

(Arpegiado)
No te apagues mi luz no me dejes atrás que me pierdo si tu te vas
Suggest correction
Give kudos to tab author, rate the tab!
1 2 3 4 5
comments
print report bad tab
guest
Wanna post a correction for this tab? Suggest correction